In the garage (Acordes)

Weezer

Full Álbum: Weezer (1994)
Subida por Cinthia

Compartir


Imprimir FAQ
+A
-A

Texto

Desplazamiento

Transportador

Color de Fondo

Archivos

-A
+A
finger picking. sound great with accoustick
 
e|---------------------------------0---------------------------------------
B|---0----3------------------1-----------0-----------0-----3-----------0---
G|------0---0---2---------------2-----2-----0-----0-----0-----0--2--------2
D|-----------------4-----4---------------------2--------------------4------
A|--------------5-----5------0-----------------------------------5---------
E|---3-----------------------------------0-----------3---------------------

e|----------------!   the rest is just awhole bunch of power chords
B|----------------!   such as C/G 3355xx
G|---0-----0--0--0!           D/A 5577xx
D|------2---------!            E  022xxx
A|---3-----2--0---!            G  355xxx
E|---------------3!            A  57xxxx or x02xxx
 theres a couple of wierd     w2 x25xxx  
chords so i call them w2      w3 x05xxx 
and w3 cool weezerchord2 and
3 ok if ya no the reel names       *e|--3------3--- 
mail me                            *B|----3-------3
                                   *G|------4------
verse 1 
C/G-- D/A------------- E----
i got dungeons masters guide
C/G-- D/A---- E--
i got 12sided die
C/G-- D/A-- G----
i got Kitty Pride
G-------------------------------------D/A  E-----*-----*
and nightcraller too,waiting there for me, yes i do i do

that chord progression is for all verses oky dok

chorus
G------D/A--- A------E----G------D/A----C---w2w3G--- 
in the garage i feel safe no one cares about my ways
G------D/A----A---------E----G------D/A------C----w2w3-G---
in the garage where i belong no one heres me sing this song
theres the chorus thats all folks

HERRAMIENTAS ACORDESWEB:


LETRA DE LA CANCIÓN:

Ver la letra sola (sin acordes)

OTRAS VERSIONES DE LA MISMA CANCIÓN:

Ver. 2 Ver. 3 Ver. 4 Ver. 5 Ver. 6

DESCARGAR PDF / IMPRIMIR CANCIÓN



ACORDES PARA GUITARRA

PIANO UKELELE


TOP 20: Las más tocadas de Weezer


Toca una Canción al Azar de Weezer

Acordes

Cerrar

11.13


164