Knock-down Drag-out
Weezer
Acordes

Subida por mgaleana
Álbum: Weezer ( 2001)


Más Versiones
Ver. 2 Ver. 3

Cambiar Cifrado
Americano Latino

Cambiar Tonalidad
-1 +1

Partir Pantalla Imprimir FAQ

+A
-A


Ver solo la LETRA
Intro
Guitar 1
e|---------------------------------------------------------------------------|
B|---------------------------------------------------------------------------|
G|-------------9-9-9---------------------------------------------------------|
D|--10-9-10------------------------------------------------------------------|
A|---------------------------------------------------------------------------|
E|---------------------------------------------------------------------------|

Guitar 2
e|---------------------------------------------------------------------------|
B|---------------------------------------------------------------------------|
G|----------------------5----------------------------------------------------|
D|--6----3----8----5----5----------------------------------------------------|
A|--6----3----8----5----3----------------------------------------------------|
E|--4----1----6----3---------------------------------------------------------|

Verse

e|---------------------------------------------------------------------------|
B|---------------------------------------------------------------------------|
G|--5--------------5---------------------------------------------------------|
D|--5----3----5----5---------------------------------------------------------|
A|--3----3----5----3---------------------------------------------------------|
E|-------1----3--------------------------------------------------------------|

Chorus

e|---------------------------------------------------------------------------|
B|---------------------------------------------------------------------------|
G|---------------------------7-----------------------------------------------|
D|--2----3----5----6----7----7----5------------------------------------------|
A|--2----3----5----6----7----5----5------------------------------------------|
E|--0----1----3----4----5----5----3------------------------------------------|

Bridge
Same as intro

Solo

e|---------------------------------------------------------------------------|
B|--17---13----13---12--10--12---13------------------------------------------|
G|---x----x-----x----x---x---x----x------------------------------------------|
D|--14---10----10----9---7---9---10------------------------------------------|
A|---------------------------------------------------------------------------|
E|---------------------------------------------------------------------------|

ACORDES PARA GUITARRA

PIANO UKELELE


COMENTARIOS

Aún no hay comentarios,

¡escribe el primero!

Escribe una pregunta, duda o comentario sobre esta canción, te responderemos a la brevedad.

Las más tocadas de Weezer

Toca una Canción al Azar de Weezer