The Christmas Song
Weezer
Acordes

Subida por ManuelWLongoria
Álbum: Weezer ( 2001)


Más Versiones
Ver. 2
HERRAMIENTAS

Cambiar Cifrado
Americano Latino

Cambiar Tonalidad
-1 +1

Partir Pantalla Imprimir FAQ

Ver solo la LETRA

+A
-A
LETRA CON ACORDES

¿Tu Guitarra esta Afinada? PRUEBA NUESTRO NUEVO AFINADOR

Intro:  (Guitar 1 plays the chords, and guitar 2 plays this opening riff)
   D5       C5        Bb5       G5              C5
E|--------------------------------------------------------------|
B|-6--6-8-6-6---6-8-6-6---6-8-6--------6--8--6--10~~------------|
G|------------------------------7--7-7--------------7p5---------|
D|------------------------------------------------------7p5-----|
A|-----------------------------------------------------------8--|
E|--------------------------------------------------------------|


VERSE 1:  (Only guitar 1. Nice Distortion feel here)
F5          D5           G5         C5     
You told me you would be here by my side.  
F5         D5            G5            C5
Warming my heart on this cold winter's night.  
D5         C5        Bb5           C5       F5     Bb5   F5
Here I sit waiting beside the tree all by myself 


VERSE 2: (Play the same chords as verse 1)
You told me you would bring presents and treats. 
Cheering my spirits with hope and sweet meats. 
Here I sit waiting beside the tree all by myself.


CHORUS:
D5                                A5
I.........Could you ever know how much I care (how much I care)
                         Bb5
Could you ever know that out somewhere (that out somewhere)
                         F5
There's a boy who really hurts (really hurts)
     A5   G5    D5             C5                Bb5
Since I.. found you. I found a girl. I found the thorn, I found 
  G5              C5
a creed. Now I am warm.


INTERLUDE: (Guitar 2 does a little solo here, guitar 1 plays the chords)
   F5        D5          G5        C5
E|-------13--12--10--10--------13--12---
B|----13--------------------15----------
G|-14--------------------15-------------    <--  Play this 2 times
D|--------------------------------------   
A|--------------------------------------
E|--------------------------------------

   D5         C5         Bb5        C5         F5 Bb5 F5
E|---------------------------------------------------------|
B|-15----15---13----13---11----11---10--10--8--10----------|
G|----14---------12---------10------------------------10---|
D|---------------------------------------------------------|
A|---------------------------------------------------------|
E|---------------------------------------------------------|

CHORUS:  (Play like previous chorus)
I...... Could you ever know how much I care (how much I care)
Could you ever know that out somewhere (that out somewhere) 
There's a boy who really hurts (really hurts) 
Since I (I) Found (Found) You, I found a girl, I found a thorn, 
I found a creed, now I am warm.


VERSE 3:  (Play like previous verses, and Guitar 2 playing the verse interlude solo)
You told me you would bring presents and treats, 
warming my spirits with home and sweet meats. 
Here I sit waiting beside the tree all by myself.....
Here I sit waiting beside the tree all by my--selfff.////////////////// ¿Te Animas? Sube una canción a este sitio. //////////////////

ACORDES PARA GUITARRA

PIANO UKELELE
D5
C5
Bb5
G5
F5
A5


COMENTARIOS

Aún no hay comentarios,

¡escribe el primero!

Escribe una pregunta, duda o comentario sobre esta canción, te responderemos a la brevedad.

Las canciones más tocadas de Weezer

Toca una Canción al Azar de Weezer
D5
C5
Bb5
G5
F5
A5

21.17


Nuestro servidor se demoró 3.83 segundos en generar esta página. Claramente hay conexiones mas rápidas...