Undone - The Sweater Song
Weezer
Acordes

Subida por KarenTorres50
Álbum: Weezer ( 1994)


Más Versiones
Ver. 2 Ver. 3 Ver. 4 Ver. 5 Ver. 6 Ver. 7 Ver. 8 Ver. 9 Ver. 10
HERRAMIENTAS

Cambiar Cifrado
Americano Latino

Cambiar Tonalidad
-1 +1

Partir Pantalla Imprimir FAQ

Ver solo la LETRA

+A
-A
LETRA CON ACORDES

¿Tu Guitarra esta Afinada? PRUEBA NUESTRO NUEVO AFINADOR

Tune down your guitar 1/2 step                                       
                                                                    
                                                                  
                                                                      
|------------------------------------------------------------------------
|-------0-------0-------0-------0----------------------------------------
|-----3-------3-------5-------3------------------------------------------
|---2-------2-------4-------2--------------------------------------------
|---------3-------5-------3----------------------------------------------
|-3----------------------------------------------------------------------


                                                                      
                                                                      
Clean                                                                 
|--3-----0-----2-----0---------------------------------------------------
|--3-----1-----3-----1---------------------------------------------------
|--0-----0-----2-----0---------------------------------------------------
|--0-----2-----0-----2---------------------------------------------------
|--2-----3-----0-----3---------------------------------------------------
|--3---------------------------------------------------------------------


                                                                      
                                                                      
distortion               play these chord under solo:                 
|------------------------------------------------------------------------
|------------------------------------------------------------------------
|----5--7-----------------------------------------------------8--10------
|-5--5--7--------------------------------------------------8--8--10------
|-5--3--5--------------------------------------------------8--6--8-------
|-3--3--5--------------------------------------------------6-------------////////////////// ¿Te Animas? Sube una canción a este sitio. //////////////////

ACORDES PARA GUITARRA

PIANO UKELELE


COMENTARIOS

Aún no hay comentarios,

¡escribe el primero!

Escribe una pregunta, duda o comentario sobre esta canción, te responderemos a la brevedad.

Las canciones más tocadas de Weezer

Toca una Canción al Azar de Weezer

05.06


Nuestro servidor se demoró 0.01 segundos en generar esta página. Eso fue realmente muy rápido!