Waiting On You (Acordes)

Weezer

Subida por carlosproagui

Compartir


Imprimir FAQ
+A
-A

Texto

Desplazamiento

Transportador

Color de Fondo

Archivos

-A
+A
=rwa= tabs
==========
waiting on you(cuomo)

guitar transcription by Eric Zemcak (pronounced Zemchack) 

INTRO/VERSE A:
Gb|---------------------------------------|
Db|o-------------------------------------o|
Ab|o----------0--2--3---3-3-3---2--0-----o|
Eb|---3-3-3---------------------------3---|

VERSE B: [Played after playing VERSE A twice.]
Gb|------------------------------------------|
Db|------------------------------------------|
Ab|-----------0--2---5-5-5-----------3-3-3---|
Eb|---3-3-3------------------3-3-3-----------|

CHORUS:
Gb|---------------------------------------------------------------|
Db|---------------------------------------------------------------|
Ab|---2-2-2-2---3-3-3-3---5-5-5-5-------------2-2-2-2---3-3-3-3---|
Eb|---------------------------------3-3-3-3-----------------------|

Gb|---------------------------------|
Db|---------------------------------|
Ab|---5-5-5-5-----------------------|
Eb|-------------3-3-3-3---0-0-0-0---|

Gb|-----------------------|
Db|o---------------------o|
Ab|o--3-3-3-3---5-5-5-5--o|
Eb|-----------------------|
"Waiting and waiating..."

ENDING FILL #1 FOR BASS:
Gb|-----------7-7-7---5-5-5---7-7-7----------------------------------|
Db|o--5-5-5---------------------------5-5-5---7--5------------------o|
Ab|o------------------------------------------------5--3-3-3-3-3-3--o|
Eb|------------------------------------------------------------------|
[Play 3 times and then..]
Gb|-----------7-7-7---5-5-5---7-7-7-----------------------------------------------|
Db|---5-5-5---------------------------5-5-5---7-7-7---5-5-5-----------------------|
Ab|-----------------------------------------------------------5-5-5---3-3-3-------|
Eb|---------------------------------------------------------------------------3---|

HERRAMIENTAS ACORDESWEB:


LETRA DE LA CANCIÓN:

Ver la letra sola (sin acordes)

OTRAS VERSIONES DE LA MISMA CANCIÓN:

DESCARGAR PDF / IMPRIMIR CANCIÓN



ACORDES PARA GUITARRA

PIANO UKELELE


TOP 20: Las más tocadas de Weezer


Toca una Canción al Azar de Weezer

Acordes

Cerrar

22.19


83