We Are All On Drugs
Weezer
Acordes

Subida por OnesLopez
Álbum: Make Believe ( 2005)


Más Versiones

HERRAMIENTAS

Cambiar Cifrado
Americano Latino

Cambiar Tonalidad
-1 +1

Partir Pantalla Imprimir FAQ

Ver solo la LETRA

+A
-A
LETRA CON ACORDES

¿Tu Guitarra esta Afinada? PRUEBA NUESTRO NUEVO AFINADOR

Tuning: 1/2 Step Down (Eb Ab Db Gb Bb Eb)

Intro:
Guitar 1
eb|------------------------------------------------7-----------------|
Bb|--5-7-8-5-7-8-5-8---5-8---5-8---8-5-7-8-5-7-8-5---5-7-8-5-7-8-5---|
Gb|------------------6-----6-----6-----------------------------------|
Db|------------------------------------------------------------------|
Ab|------------------------------------------------------------------|
Eb|------------------------------------------------------------------|
Guitar 2                                                             |
eb|------------------------------------------------------------------|
Bb|------------------------------------------------------------------|
Gb|--9-9-9-9-9-9-9-9-6-6-6-6-6-6-6-6-5-5-5-5-5-5-5-5-7-7-7-7-7-7-7---|
Db|--9-9-9-9-9-9-9-9-6-6-6-6-6-6-6-6-5-5-5-5-5-5-5-5-7-7-7-7-7-7-7---|
Ab|--7-7-7-7-7-7-7-7-4-4-4-4-4-4-4-4-3-3-3-3-3-3-3-3-5-5-5-5-5-5-5---|
Eb|------------------------------------------------------------------|x2

Verse:
Eb|-------------------------------------------------------------------|
Bb|-------------------------------------------------------------------|
Gb|--9-9-9-9-9-9-9-9-6-6-6-6-6-6-6-6-5-5-5-5-5-5-5-5-7-7-7-7-7-7-7-7--|
Db|--9-9-9-9-9-9-9-9-6-6-6-6-6-6-6-6-5-5-5-5-5-5-5-5-7-7-7-7-7-7-7-7--|
Ab|--7-7-7-7-7-7-7-7-4-4-4-4-4-4-4-4-3-3-3-3-3-3-3-3-5-5-5-5-5-5-5-5--|
Eb|-------------------------------------------------------------------|x3
PM   ...............................................................

Eb|-------------------------------------------------------------------|
Bb|-------------------------------------------------------------------|
Gb|--9-9-9-9-9-9-9-9-6-6-6-6-6-6-6-6-5-5-5-5-5-5-5-5-7-7-7-7-7-x-x-x--|
Db|--9-9-9-9-9-9-9-9-6-6-6-6-6-6-6-6-5-5-5-5-5-5-5-5-7-7-7-7-7-x-x-x--|
Ab|--7-7-7-7-7-7-7-7-4-4-4-4-4-4-4-4-3-3-3-3-3-3-3-3-5-5-5-5-5-x-x-x--|
Eb|-------------------------------------------------------------------|
PM   .........................................................

Chorus:
Eb|-------------------------------------------------------------------|
Bb|-------------------------------------------------------------------|
Gb|--9-9-9-9-9-9-9-9-6-6-6-6-6-6-6-6-5-5-5-5-5-5-5-5-7-7-7-7-7-7-7-7--|
Db|--9-9-9-9-9-9-9-9-6-6-6-6-6-6-6-6-5-5-5-5-5-5-5-5-7-7-7-7-7-7-7-7--|
Ab|--7-7-7-7-7-7-7-7-4-4-4-4-4-4-4-4-3-3-3-3-3-3-3-3-5-5-5-5-5-5-5-5--|
Eb|-------------------------------------------------------------------|x2

Verse:
Eb|-------------------------------------------------------------------|
Bb|-------------------------------------------------------------------|
Gb|--9-9-9-9-9-9-9-9-6-6-6-6-6-6-6-6-5-5-5-5-5-5-5-5-7-7-7-7-7-7-7-7--|
Db|--9-9-9-9-9-9-9-9-6-6-6-6-6-6-6-6-5-5-5-5-5-5-5-5-7-7-7-7-7-7-7-7--|
Ab|--7-7-7-7-7-7-7-7-4-4-4-4-4-4-4-4-3-3-3-3-3-3-3-3-5-5-5-5-5-5-5-5--|
Eb|-------------------------------------------------------------------|x3
PM   ...............................................................

Eb|-------------------------------------------------------------------|
Bb|-------------------------------------------------------------------|
Gb|--9-9-9-9-9-9-9-9-6-6-6-6-6-6-6-6-5-5-5-5-5-5-5-5-7-7-7-7-7-x-x-x--|
Db|--9-9-9-9-9-9-9-9-6-6-6-6-6-6-6-6-5-5-5-5-5-5-5-5-7-7-7-7-7-x-x-x--|
Ab|--7-7-7-7-7-7-7-7-4-4-4-4-4-4-4-4-3-3-3-3-3-3-3-3-5-5-5-5-5-x-x-x--|
Eb|-------------------------------------------------------------------|
PM   .........................................................

Chorus:
Eb|-------------------------------------------------------------------|
Bb|-------------------------------------------------------------------|
Gb|--9-9-9-9-9-9-9-9-6-6-6-6-6-6-6-6-5-5-5-5-5-5-5-5-7-7-7-7-7-7-7-7--|
Db|--9-9-9-9-9-9-9-9-6-6-6-6-6-6-6-6-5-5-5-5-5-5-5-5-7-7-7-7-7-7-7-7--|
Ab|--7-7-7-7-7-7-7-7-4-4-4-4-4-4-4-4-3-3-3-3-3-3-3-3-5-5-5-5-5-5-5-5--|
Eb|-------------------------------------------------------------------|x2

Bridge:
Eb|-------------------------------------------------------------------|
Bb|-------------------------------------------------------------------|
Gb|--2-2-2-2-2-2-2-2-4-4-4-4-4-4-4-4-5-5-5-5-5-5-5-5-5-5-5-5-5-5-5----|
Db|--2-2-2-2-2-2-2-2-4-4-4-4-4-4-4-4-5-5-5-5-5-5-5-5-5-5-5-5-5-5-5----|
Ab|--0-0-0-0-0-0-0-0-2-2-2-2-2-2-2-2-3-3-3-3-3-3-3-3-3-3-3-3-3-3-3----|
Eb|-------------------------------------------------------------------|

eb|----------------------------------------------------------|
Bb|----------------------------------------------------------|
Gb|--2-2-2-2-2-2-2-2-4-4-4-4-4-4-4-4-5-5-5-5-5-5-5-5-7~--8~--|
Db|--2-2-2-2-2-2-2-2-4-4-4-4-4-4-4-4-5-5-5-5-5-5-5-5-7~--8~--|
Ab|--0-0-0-0-0-0-0-0-2-2-2-2-2-2-2-2-3-3-3-3-3-3-3-3-5~--6~--|
Eb|----------------------------------------------------------|

Solo: 
eb|---------------------------------------------------12-------12-------14-12~----14-12~----14-12~----14-12~-|
Bb|----------------------------------------12-15~--12----15-12----15-12--------12--------12--------12--------|
Gb|-14b15r14~--14-12-14-12-----------12h14--------------------------------------------------------------------|
Db|-----------------------14-14~--14-------------------------------------------------------------------------|
Ab|----------------------------------------------------------------------------------------------------------|
Eb|----------------------------------------------------------------------------------------------------------|

eb|--15-14-15/17-15-17-17b18r17b18r17b18r17-15-----------|
Bb|--------------------------------------------17-15-17~~|
Gb|------------------------------------------------------|
Db|------------------------------------------------------|
Ab|------------------------------------------------------|
Eb|------------------------------------------------------|

Guitar 1
eb|------------------------------------------------7-----------------|
Bb|--5-7-8-5-7-8-5-8---5-8---5-8---8-5-7-8-5-7-8-5---5-7-8-5-7-8-5---|
Gb|------------------6-----6-----6-----------------------------------|
Db|------------------------------------------------------------------|
Ab|------------------------------------------------------------------|
Eb|------------------------------------------------------------------|
Guitar 2                                                             |
eb|------------------------------------------------------------------|
Bb|------------------------------------------------------------------|
Gb|--9-9-9-9-9-9-9-9-6-6-6-6-6-6-6-6-5-5-5-5-5-5-5-5-7-7-7-7-7-7-7---|
Db|--9-9-9-9-9-9-9-9-6-6-6-6-6-6-6-6-5-5-5-5-5-5-5-5-7-7-7-7-7-7-7---|
Ab|--7-7-7-7-7-7-7-7-4-4-4-4-4-4-4-4-3-3-3-3-3-3-3-3-5-5-5-5-5-5-5---|
Eb|------------------------------------------------------------------|x2

Chorus:
Eb|-------------------------------------------------------------------|
Bb|-------------------------------------------------------------------|
Gb|--9-9-9-9-9-9-9-9-6-6-6-6-6-6-6-6-5-5-5-5-5-5-5-5-7-7-7-7-7-7-7-7--|
Db|--9-9-9-9-9-9-9-9-6-6-6-6-6-6-6-6-5-5-5-5-5-5-5-5-7-7-7-7-7-7-7-7--|
Ab|--7-7-7-7-7-7-7-7-4-4-4-4-4-4-4-4-3-3-3-3-3-3-3-3-5-5-5-5-5-5-5-5--|
Eb|-------------------------------------------------------------------|

Guitar 1
Eb|-------------------------------------------------------------------|
Bb|-------------------------------------------------------------------|
Gb|--9-9-9-9-9-9-9-9-6-6-6-6-6-6-6-6-5-5-5-5-5-5-5-5-7-7-7-7-7-7-7-7--|
Db|--9-9-9-9-9-9-9-9-6-6-6-6-6-6-6-6-5-5-5-5-5-5-5-5-7-7-7-7-7-7-7-7--|
Ab|--7-7-7-7-7-7-7-7-4-4-4-4-4-4-4-4-3-3-3-3-3-3-3-3-5-5-5-5-5-5-5-5--|
Eb|-------------------------------------------------------------------|
  |                                                                   |
Guitar 2                                                              |
Eb|-------------------------------------------------------------------|
Bb|------------------------------5-7~~---------------5-7-8-5-7-8-5~---|
Gb|-----------------------------6-------------------------------------|
Db|-------------------------------------------------------------------|
Ab|-------------------------------------------------------------------|
Eb|-------------------------------------------------------------------|

Guitar 1
Eb|-------------------------------------------------------------------|
Bb|-------------------------------------------------------------------|
Gb|--9-9-9-9-9-9-9-9-6-6-6-6-6-6-6-6-5-5-5-5-5-5-5-5-7-7-7-7-7-7-7-7--|
Db|--9-9-9-9-9-9-9-9-6-6-6-6-6-6-6-6-5-5-5-5-5-5-5-5-7-7-7-7-7-7-7-7--|
Ab|--7-7-7-7-7-7-7-7-4-4-4-4-4-4-4-4-3-3-3-3-3-3-3-3-5-5-5-5-5-5-5-5--|
Eb|-------------------------------------------------------------------|
  |                                                                   |
Guitar 2                                                              |
Eb|-------------------------------------------------------------------|
Bb|--9-9-9-9-9-9-9-9-9-9-9-9-9-9-9-9-8-8-8-8-8-8-8-8-7-7-7-7-7-7-7-7--|
Gb|--x-x-x-x-x-x-x-x-x-x-x-x-x-x-x-x-x-x-x-x-x-x-x-x-x-x-x-x-x-x-x-x--|
Db|--6-6-6-6-6-6-6-6-6-6-6-6-6-6-6-6-5-5-5-5-5-5-5-5-4-4-4-4-4-4-4-4--|
Ab|-------------------------------------------------------------------|
Eb|-------------------------------------------------------------------|

Guitar 1
Eb|-------------------------------------------------------------------|
Bb|-------------------------------------------------------------------|
Gb|--9-9-9-9-9-9-9-9-6-6-6-6-6-6-6-6-5-5-5-5-5-5-5-5-7-7-7-7-7-7-7-7--|
Db|--9-9-9-9-9-9-9-9-6-6-6-6-6-6-6-6-5-5-5-5-5-5-5-5-7-7-7-7-7-7-7-7--|
Ab|--7-7-7-7-7-7-7-7-4-4-4-4-4-4-4-4-3-3-3-3-3-3-3-3-5-5-5-5-5-5-5-5--|
Eb|-------------------------------------------------------------------|
  |                                                                   |
Guitar 2                                                              |
Eb|-------------------------------------------------------------------|
Bb|--9-9-9-9-9-9-9-9-9-9-9-9-9-9-9-9-8-8-8-8-8-8-8-8-7-7-7-7-7-7-7-7--|
Gb|--x-x-x-x-x-x-x-x-x-x-x-x-x-x-x-x-x-x-x-x-x-x-x-x-x-x-x-x-x-x-x-x--|
Db|--6-6-6-6-6-6-6-6-6-6-6-6-6-6-6-6-5-5-5-5-5-5-5-5-4-4-4-4-4-4-4-4--|
Ab|-------------------------------------------------------------------|
Eb|-------------------------------------------------------------------|

Guitar 1
eb|----------|
Bb|----------|
Gb|--9~~~----|
Db|--9~~~----|
Ab|--7~~~----|
Eb|----------|
  |          |
Guitar 2     |
eb|----------|
Bb|--5~~~----|
Gb|--x~~~----|
Db|--2~~~----|
Ab|----------|
Eb|----------|////////////////// ¿Te Animas? Sube una canción a este sitio. //////////////////

ACORDES PARA GUITARRA

PIANO UKELELE


COMENTARIOS

Aún no hay comentarios,

¡escribe el primero!

Escribe una pregunta, duda o comentario sobre esta canción, te responderemos a la brevedad.

Las canciones más tocadas de Weezer

Toca una Canción al Azar de Weezer

06.53


Nuestro servidor se demoró 4.1 segundos en generar esta página. Claramente hay conexiones mas rápidas...