Why Bother?
Weezer
Acordes

Subida por Malou
Álbum: Pinkerton ( 1996)


Más Versiones
Ver. 2

Cambiar Cifrado
Americano Latino

Cambiar Tonalidad
-1 +1

Partir Pantalla Imprimir FAQ

+A
-A


Ver solo la LETRA
=rwa= tabs
==========
why bother? (cuomo)

guitar transcription by Eric Zemcak (pronounced Zemchack)

VERSE:
Gb|-------------------------------------------------------------------------|
Db|o------------------------------------------------------------------------|
Ab|o------------------------------------------7-7-7-7-----------------------|
Eb|---0-0-0-0---4-4-4-4---5-5-5-5---7-7-7-7-------------4-4-4-4---5-5-5-5---|

Gb|-------------|
Db|------------o| x2
Ab|------------o|
Eb|---7-7-7-7---|

CHORUS:
Gb|---------------------------|
Db|o-------------------------o| x2
Ab|o--7-7---4-4--------------o|
Eb|---------------5-5---7-7---|

Gb|----------------------------------------------------|
Db|---------------------------------------7--6--4------|
Ab|---------6--------4--7--4-----6--9--6-----------7---|
Eb|---4--7-----7--5-----------7------------------------|

SOLO:
Gb|-------------------------------------------------------------------------|
Db|-------------------------------------------------------------------------|
Ab|-------------------------------------------7-7-7-7-----------------------|
Eb|---0-0-0-0---4-4-4-4---5-5-5-5---7-7-7-7-------------4-4-4-4---5-5-5-5---|

Gb|-----------------------------------------------------|
Db|-----------------------------------------------------|
Ab|-----------------------------------------------------|
Eb|---7-7-7-7---0-0-0-0---4-4-4-4---5-5-5-5---7-7-7-7---|

Gb|-------------------------------------------6-6-6-6---8-8-8-8---9-9-9-9---|
Db|-------------6-6-6-6---7-7-7-7---9-9-9-9---------------------------------|
Ab|---7-7-7-7---------------------------------------------------------------|
Eb|-------------------------------------------------------------------------|

Gb|---------------------|
Db|---------------------|
Ab|---------------------|
Eb|---11-11-11-11---9---|

ACORDES PARA GUITARRA

PIANO UKELELE


COMENTARIOS

Aún no hay comentarios,

¡escribe el primero!

Escribe una pregunta, duda o comentario sobre esta canción, te responderemos a la brevedad.

Las más tocadas de Weezer

Toca una Canción al Azar de Weezer