Canadian Idiot
Weird Al Yankovic
Acordes

Subida por guidoe7



Cambiar Cifrado
Americano Latino

Cambiar Tonalidad
-1 +1

Partir Pantalla Imprimir FAQ

+A
-A
        A. Idiot- Green Day
Tuning: Standard
Ok this is a classic parody of Green Day's American Idiot but I'm going to do Canadian
ok?


MAIN RIFF: No Bass or Drums
Guitar-distorted
|--------------------|
|--------------------|
|------6-6-----6-----|
|6-6-6-6-6-4-4-6-6-4-|
|6-6-6-4-4-4-4-4-6-4-|
|4-4-4-----2-2---4-2-|

Verse riff 1
|----------------------|
|4---------------------|
|4-------6-6-----6-----|
|4-6-6-6-6-6-4-4-6-6-4-|
|--6-6-6-4-4-4-4-4-6-4-|
|--4-4-4-----2-2---4-2-|

Verse riff 2
|-------------------4-|
|-------------------4-|
|------6-6-----6----4-|
|6-6-6-6-6-4-4-6-6--4-| also there is another riff like this
|6-6-6-4-4-4-4-4-6----|
|4-4-4-----2-2---4----|

Verse riff 3
|4-------------------4-|
|4-------------------4-|
|4-------6-6-----6---4-|
|4-6-6-6-6-6-4-4-6-6-4-|
|--6-6-6-4-4-4-4-4-6---|
|--4-4-4-----2-2---4---|

Verse riff 4
|4---------------------|
|4---------------------|
|4-------6-6-----6-----|
|4-6-6-6-6-6-4-4-6-6-4-|
|--6-6-6-4-4-4-4-4-6-4-|
|--4-4-4-----2-2---4-2-|


CHORUS 1:
|---------------------------------------------------------------|
|---------------------------------------------------------------|
|6-6-6-6-6-6-6-6-6-6------------------------8-8-8-8-8-8-8-8-8-8-|
|6-6-6-6-6-6-6-6-6-6--6-6-6-6-6-6-6-6-6-6---8-8-8-8-8-8-8-8-8-8-|
|4-4-4-4-4-4-4-4-4-4--6-6-6-6-6-6-6-6-6-6---6-6-6-6-6-6-6-6-6-6-|
|---------------------4-4-4-4-4-4-4-4-4-4-----------------------|

|-------------------------------------------------------------|
|-------------------------------------------------------------|
|--------------------6-6-6-6-6-6-6-6-6-6----------------------|
|6-6-6-6-6-6-6-6-6-6-6-6-6-6-6-6-6-6-6-6-6-6-6-6-6-6-6-6-6-6--|
|6-6-6-6-6-6-6-6-6-6-4-4-4-4-4-4-4-4-4-4-6-6-6-6-6-6-6-6-6-6--|
|4-4-4-4-4-4-4-4-4-4---------------------4-4-4-4-4-4-4-4-4-4--|

|--------------------||
|--------------------||
|8-8-8-8-8-8-8-8-8-8-||
|8-8-8-8-8-8-8-8-8-8-||
|6-6-6-6-6-6-6-6-6-6-||
|--------------------||

SOLO:
|-------- |-------|
|-------- |9~~~~--|
|13~~~~-- |-------|
|-------- Another way of it is: |-------| They make the same
|-------- |-------| sound
|-------- |-------|
Ok for the Solo Al got really creative with it?not. It's just the last note for the solo
the American Idiot song.
If you want the whole American Idiot solo email me at *


OUTRO:
|--------||
|--------||
|6-6-6---||
|6-6-6-6-||
|4-4-4-6-||
|------4-||

End & Enjoy!

Song ORDER: -Note I may be a little off around the solo when it comes to Verse and Main riffs.
Main Riff
Verse Riff 2
Main Riff
Verse Riff 2
Verse Riff 4
Verse Riff 3
Verse Riff 4
Verse Riff 3
Chorus 1
Drum Solo
Verse Riff 4
Verse Riff 3
Verse Riff 4
Verse Riff 3
Verse Riff 4
Verse Riff 3
Chorus 2
Solo
Verse Riff 2 x5
Chorus
Main Riff x3
Verse Riff 3
Main Riff
Outro

ACORDES PARA GUITARRA

PIANO UKELELE


COMENTARIOS

Aún no hay comentarios,

¡escribe el primero!

Escribe una pregunta, duda o comentario sobre esta canción, te responderemos a la brevedad.

Las más tocadas de Weird Al Yankovic

Toca una Canción al Azar de Weird Al Yankovic