Hardware Store
Weird Al Yankovic
Acordes

Subida por JesusMiguelBrizuela
Álbum: Poodle Hat ( 2003)



Cambiar Cifrado
Americano Latino

Cambiar Tonalidad
-1 +1

Partir Pantalla Imprimir FAQ

+A
-A
this song actually is mostly whole notes on the guitar but when i play it i add rhythm to it

btw this is my first tab, wish me luck!

standard tuning

E-----------|-------|------|--6-4-3-----------------|
B-----------|-------|------|--------7-6-5-4-3-------|
G-----------|-------|------|------------------------|
D-----1-2-3-|---%---|--%---|------------------------|
A-1-4-------|-------|------|------------------------|
E-----------|-------|------|------------------------|


Verse
E-----------|------------|-------------|-----------------|
B-3---------|------------|-------------|-----------------|
G-3---------|------------|-6-----------|-8---------------|
D-3---------|-6----------|-6-----------|-8---------------| x3
A-1---------|-6----------|-4-----------|-6---------------|
E-----------|-4----------|-------------|-----------------|


Pre Chorus
E-----------|------------|-------------|------|----------|
B-----------|------------|-------------|------|----------|
G-10--------|-8----------|-6-----------|-8----|--10------|
D-10--------|-8----------|-6-----------|-8----|--10------|
A-8---------|-6----------|-4-----------|-6----|--8-------|
E-----------|------------|-------------|------|----------|

E-----------|------------|-------------|-----------|
B-----------|------------|-------------|-----------|
G-----------|-3----------|-6----8------|---3-2-1-2-|
D-4---3-----|-3---6------|-6----8------|-3---------|
A-4---3-----|-1---6------|-4----6------|-3---------|
E-2---1-----|-----4------|-------------|-1---------|


{repeat intro, but last measure is this)

E--------------------------------------------------|
B----11-11-11----11-11-11----11-11-11----11-11-11--|
G-10-10-10-10-10-10-10-10-10-10-10-10-10-10-10-10--|
D--------------------------------------------------|
A--------------------------------------------------|
E--------------------------------------------------|


Verse

Pre Chorus

Chorus(X2)

Verse (X7)

Pre Chorus

Chorus (X3)

Intro w/ alternate last measure

there we go! i hope you like

sorry if anythings wrong

ACORDES PARA GUITARRA

PIANO UKELELE


COMENTARIOS

Aún no hay comentarios,

¡escribe el primero!

Escribe una pregunta, duda o comentario sobre esta canción, te responderemos a la brevedad.

Las más tocadas de Weird Al Yankovic

Toca una Canción al Azar de Weird Al Yankovic