Gump
Weird Al Yankovic
Acordes

Subida por Gaby
Álbum: Bad Hair Day ( 1996)



Cambiar Cifrado
Americano Latino

Cambiar Tonalidad
-1 +1

Partir Pantalla Imprimir FAQ

+A
-A

Ok, so there wasnt a tab for gump so i tried to figure it out. I know for a fact there
are mstakes so if you have corrections email them to me at C*,
thanks



-intro-
(2x)
e|---------------------------------------------------||
B|---------------------------------------------------||
G|---------------------------------------------------||
D|---------------------------------------------------||
A|-------------3-4--3-4--3-4----------3-44444444444--||
E|------------------------------------1-22222222222--||

...like a box of...he's gump. Whats in his head?
...he's gump. Is he in-bred?

-bridge-
(2x)
e|------------------------------------------||
B|------------------------------------------||
G|------------------------------------------||
D|------------------------------------------||
A|----3-3-3-3-3-3-3-3--4-4-4-4--2-2-2-2-----||
E|----1-1-1-1-1-1-1-1--2-2-2-2--0-0-0-0-----||
...He never... because...stupid does

-chorus-

e|---------------------------------------------------||
B|---------------------------------------------------||
G|---------------------------------------------------||
D|---------------------------------------------------||
A|-------------3-4--3-4--3-4----------3-44444444444--||
E|------------------------------------1-22222222222--||


-bridge-
(2x)
e|--------------------------------------||---------------------------------||
B|--------------------------------------||---------------------------------||
G|-----6-6-5-6--6-5-6-------------------||---------------------------------||
D|--------------------------------------||---------------------------------||
A|-----------------------------0-1-2----||--4-4-3-4--4-3-4---------0-1-2---||
E|----------------------0-1-2-----------||------------------0-1-2----------||

...run, run, run, run, forest, run,....


-verse-

-chorus-

-outro-
(4x)
e|-----------------------------------||
B|-----------------------------------||
G|-----------------------------------||
D|-----------------------------------||
A|----4-4-3-4--4-3-4---------0-1-2---||
E|--------------------0-1-2----------||

ACORDES PARA GUITARRA

PIANO UKELELE


COMENTARIOS

Aún no hay comentarios,

¡escribe el primero!

Escribe una pregunta, duda o comentario sobre esta canción, te responderemos a la brevedad.

Las más tocadas de Weird Al Yankovic

Toca una Canción al Azar de Weird Al Yankovic