I Cant Watch This
Weird Al Yankovic
Acordes

Subida por Pollo503
Álbum: Off the Deep End ( 1992)



Cambiar Cifrado
Americano Latino

Cambiar Tonalidad
-1 +1

Partir Pantalla Imprimir FAQ

+A
-A


Ver solo la LETRA
I Can't Watch This (parody of U Can't Touch This by M.C. Hammer)
Weird Al

tabbed by Andrew Beale 8/10/06


G|------------------------------|
D|------------------------------|
A|-5----3--2--0---2------2--0---|
E|-------------------3----------|


every once and a while its cool to throw in
G|------------------------------|
D|------------------------------|
A|-5----3--2--0----------2--0---|
E|----------------0--3----------|

ACORDES PARA GUITARRA

PIANO UKELELE


COMENTARIOS

Aún no hay comentarios,

¡escribe el primero!

Escribe una pregunta, duda o comentario sobre esta canción, te responderemos a la brevedad.

Las más tocadas de Weird Al Yankovic

Toca una Canción al Azar de Weird Al Yankovic