Close But No Cigar (Acordes)

Weird Al Yankovic

Subida por ricard026

Compartir


Imprimir FAQ
+A
-A

Texto

Desplazamiento

Transportador

Color de Fondo

Archivos

-A
+A
Standard Tuning E A D G
Album: Straight outta Lynwood

Verse:
G---------------------------------|
D--------------------5-3----------|
A--5--3h5-3h5-3-5-------5-2-3-4-5-|
E-----------------3-3-------------|

1st Prechorus:
G------------------------------------------------------------|
D------------------------------------------------------------|
A------------------------------------------------------------|
E--5-5-5-5-5-5-5-5-5-5-5-5-5-5-3-3-3-3-3-3-3-3-3-3-3-3-3-3-3-|

Chorus:
G---7-5------------------------------------------------------------------|
D------7-5/-------------------------------------------------5-3----------|
A--5---------------------------------------5-3h5-3h5-3-5-------5-2-3-4-5-|
E----------3-3-3-3-3-5-5-5-5-3-3-3-3-3-3-----------------3-3-------------|

(verse)

2nd Prechorus:
G---------------------------------------|
D--------------------------------3------|
A---------------------------------5-2---|
E--5-5-5-5-5-5-5-5-5-5-5-3-3-3-3------3-|

(chorus)

Bridge:
G--------------------------------------------------------------------------|
D----------------------------------------------------------7-7-7-7-7-7-----|
A----------------------------------5-5-5-5-5-5-5-5-5-5-5-5-----------------|
E--5-5-5-5-5-5-5-5-5-5-5-5-5-5-5-5---------------------------------------5-|

(verse)

(1st Prechorus)

(chorus)X2

I think this is pretty close to right. This CD just came out and I liked the bass riff 
this song so here it is. Hope it helps.

HERRAMIENTAS ACORDESWEB:


LETRA DE LA CANCIÓN:

Ver la letra sola (sin acordes)

DESCARGAR PDF / IMPRIMIR CANCIÓN



ACORDES PARA GUITARRA

PIANO UKELELE


TOP 20: Las más tocadas de Weird Al Yankovic


Acordes

Cerrar

11.39


87