I Love Rocky Road
Weird Al Yankovic
Acordes

Subida por Eloy



HERRAMIENTAS

Cambiar Cifrado
Americano Latino

Cambiar Tonalidad
-1 +1

Partir Pantalla Imprimir FAQ

Ver solo la LETRA

+A
-A
LETRA CON ACORDES

¿Tu Guitarra esta Afinada? PRUEBA NUESTRO NUEVO AFINADOR

G----------------------------------------------------------|
D----------------------------------------------------------|
A-----------------------2-2------------------------2-------|
E-0-0-----0-0-3-5-5----------3-0-0-----0-0-3-5-5-----3-0-0-|

G----------------------------------------------|
D----------------------------------------------|
A---------7-5-----------------------7-5--------|
E-0-0---------7-5-3---0-0-----0-0--------7-5-3-|

G----------------------------------------------------|
D----------------------------------------------------|
A----------------7-5---------------------------------|
E-0-0----7-7-----------7-5-3----5-5---7-7----0-0--5~-|

2 bars just Al singing (claps and drums)

G-------------------------------------------------------------------------|
D-------------------------------------------------------------------------|
A-2-2-2-2-2-2-2-2-------------------------2-2---------------------2-------|
E-----------------0-0---0-0---0-0-3-5-5---------0-0---0-0-3-5-5-----3-0-0-|

G----------------------------------------------|
D----------------------------------------------|
A---------7-5-----------------------7-5--------|
E-0-0---------7-5-3---0-0----0-0---------7-5-3-|

G----------------------------------------------------|
D----------------------------------------------------|
A----------------7-5---------------------------------|
E-0-0----7-7-----------7-5-3----5-5---7-7----0-0--5~-|

2 bars just Al singing (claps and drums)

G-------------------------------------------------------------------------|
D-------------------------------------------------------------------------|
A-2-2-2-2-2-2-2-2-------------------------2-2---------------------2-------|
E-----------------0-0---0-0---0-0-3-5-5---------0-0---0-0-3-5-5-----3-0-0-|

G----------------------------------------------|
D----------------------------------------------|
A---------7-5-----------------------7-5--------|
E-0-0---------7-5-3---0-0----0-0---------7-5-3-|

G----------------------------------------------------|
D----------------------------------------------------|
A----------------7-5---------------------------------|
E-0-0----7-7-----------7-5-3----5-5---7-7----0-0--5~-|

7 bars just Al singing with backvocals (drums and claps)

G----------------------------------------------------------|
D----------------------------------------------------------|
A-----------------------2-2------------------------2-------|
E-0-0-----0-0-3-5-5------------0-0-----0-0-3-5-5-----3-0-0-|

G--------------------------------------------------|
D--------------------------------------------------|
A---------------2-2------------------------2-------|
E-0-0-3-5-5------------0-0-----0-0-3-5-5-----3-0-0-|

G--------------------------------------------------|
D--------------------------------------------------|
A---------------2-2------------------------2-------|
E-0-0-3-5-5------------0-0-----0-0-3-5-5-----3-0-0-|

G------------------------------------------------|
D------------------------------------------------|
A---------------2-2------------------------2-----|
E-0-0-3-5-5------------0-0-----0-0-3-5-5-----3-0-|////////////////// ¿Te Animas? Sube una canción a este sitio. //////////////////

ACORDES PARA GUITARRA

PIANO UKELELE


COMENTARIOS

Aún no hay comentarios,

¡escribe el primero!

Escribe una pregunta, duda o comentario sobre esta canción, te responderemos a la brevedad.

Las canciones más tocadas de Weird Al Yankovic

Toca una Canción al Azar de Weird Al Yankovic

11.35


Nuestro servidor se demoró 0.57 segundos en generar esta página. No esta nada mal!