Un tema de mierda
Intoxicados
Acordes

Subida por Acustico


Más Versiones
Ver. 2 Ver. 3

Cambiar Cifrado
Americano Latino

Cambiar Tonalidad
-1 +1

Partir Pantalla Imprimir FAQ

+A
-A
Intoxicados - Un Tema De Mierda:


Intro: C5 - A5


Punteo Del Intro Y Solo

e------------------------------------
b------3-5-3------------1-0----------
g--5-5-------5-2--2-2-4-----2--------
d------------------------------------
a------------------------------------
E------------------------------------


Todo El Tema Esta En C5 - A5

C5 A5
---x---xxxx---x---xxxx-------x---xxxx---x---xxxx-------
---x---xxxx---x---xxxx-------x---xxxx---x---xxxx-------
---5---5555---5---5555-------x---xxxx---x---xxxx-------
---5---5555---5---5555-------7---7777---7---7777-------
---3---3333---3---3333-------7---7777---7---7777-------
---x---xxxx---x---xxxx-------5---5555---5---5555-------

Cuanta mierda habrá en Alemania
Cuanta mierda tan cerca de casa
Cuanta mierda hay en tu trabajo
Cuanta mierda tendrás en el culo

Cuanta mierda, cuanta mierda.

Cuanta mierda hay los gobierno
Cuanta mierda hay en el vaticano
Cuanta mierda en las fuerza armadas
¿Cuando mierda yo entre en este mundo?

Cuantos problemas nos trajo el petróleo
Cuantos problemas Cristóbal Colon
Cuantos problemas la tecnología
¿Cuándo mierda yo entre en este planeta?

Cuanta mierda hay en tus creencias
Cuanta mierda tenes en la heladera
Cuanta mirada paso por tu nariz
Y cuanta mierda tendrás en el culo



Acordes

Nota: La x significa que esa cuerda no debe sonar.

C5: A5

E x E x
B x B x
G 5 G x
D 5 D 7
A 3 A 7
E x E 5

Muy Muy Facil...


ACORDES PARA GUITARRA

PIANO UKELELE
C5
A5
E
B
G
D
A


COMENTARIOS

Aún no hay comentarios,

¡escribe el primero!

Escribe una pregunta, duda o comentario sobre esta canción, te responderemos a la brevedad.

Las más tocadas de Intoxicados

Toca una Canción al Azar de Intoxicados
C5
A5
E
B
G
D
A