De la guitarra
Intoxicados
Acordes

Subida por Missiel


Más Versiones
Ver. 2 Ver. 3 Ver. 4 Ver. 5 Ver. 6

Cambiar Cifrado
Americano Latino

Cambiar Tonalidad
-1 +1

Partir Pantalla Imprimir FAQ

+A
-A
Intro: (G-A-C-C)x2
(G-A-C-C)x2

e|-------------------------3-----------------------
B|---------------------------3---------------------
G|-4/5/4-4/5/4---7-----4/5-----4-7br---------------
D|-------------5-----5---------------7----7-5------
A|------------------------------------7------------
E|-------------------------------------------------

e|-------------------3-------------
B|---------------------3-----------
G|---------------4/5-----4-7br-----
D|-4/5/4----7--5---------------7---
A|--------5----------------------7-
E|---------------------------------

e|-------------8---10-8---10-8------8-8-7-5-3-|
B|----10---------8------8------8--------------|
G|-7/9---9--7/9-------------------9-----------|
D|--------------------------------------------|
A|--------------------------------------------|
E|--------------------------------------------|

riff 1

e|--------------|
B|--------------|
G|--------------|
D|--------------|
A|-------2-3-5--|
E|-0-3-5--------|

riff 2

e|--3/5--7--5/3------|
B|--3/5-----5/3------|
G|-------------------|
D|-------------------|
A|-------------------|
E|-------------------|

riff 3

e|-----------------(0)-|
B|-----------------(0)-|
G|-----------------(0)-|
D|-----------------(2)-|
A|--0-3-2---------(2)--|
E|--------3-2-(0)-(0)--|

riff 4

e|------------------|
B|------------------|
G|------------------|
D|-02h4h5-0h2h4h5-0-|
A|------------------|
E|------------------|

riff 5

e|----------------------------5-8-10---|
B|----------------------5-7-8----------|
G|-------------------5-7---------------|
D|----7-----------5-7------------------|
A|-5h7---------5-7---------------------|
E|--------5-7-8------------------------|


G A C C
Solía verla siempre, temprano en las mañanas
G A C C (riff 1)
Tomaba el mismo tren que yo esperaba frente de la estación
G A C C (riff 2)
Es que, en frente había un negocio que vendía guitarras
G A C C (riff 3)
Me llamaba la atención de la forma que las miraba ah ah


Em A
Uhh Uhh
C (riff 3)
Hacia el tren mientras su sueño se alejaba
Em A
Uhh Uhh
C
Las estaciones tristes la vieron pasar


G-A-C-C x2 (intro)

G A C C (riff 2)
Jamás volví a verla mirando las guitarras
G A C C (riff 3)
Pero tengo la sensación que ahora está tocando alguna canción

Em A
Uhh Uhh
C (riff 3)
Hacia el tren mientras su sueño se alejaba
Em A
Uhh Uhh
C D
Las estaciones tristes la vieron pasar

G C
No hablo de drogas,
A
No hablo de tranzas
D C
No hablo de cosas raras
G A
Es un pequeño anhelo,
C C (riff 4)
Una pequeña tentación

G C
El sueño de algunos
A
Puede ser cambiar el auto
D C G
O tener una casa de fin de semana
A
El sueño de otros puede ser
C (riff 5)
Solo tener una guitarra
C
Para tocar esta canción que escuchas


Em A
Uhh Uhh
C (riff 3)
Hacia el tren mientras su sueño se alejaba
Em A
Uhh Uhh
C D
Las estaciones tristes la vieron pasar

G C
No hablo de drogas,
A
No hablo de tranzas
D C
No hablo de cosas raras
G A
Es un pequeño anhelo,
C C (riff 4)
Una pequeña tentación

G C
El sueño de algunos
A
Puede ser cambiar el auto
D C G
O tener una casa de fin de semana
A
El sueño de otros puede ser
C (riff 5)
Solo tener una guitarra
C
Para tocar esta canción que escuchas


ACORDES PARA GUITARRA

PIANO UKELELE
G
A
C
Em
D


COMENTARIOS

Aún no hay comentarios,

¡escribe el primero!

Escribe una pregunta, duda o comentario sobre esta canción, te responderemos a la brevedad.

Las más tocadas de Intoxicados

Toca una Canción al Azar de Intoxicados
G
A
C
Em
D