Yo no fui
Intoxicados
Acordes

Subida por Xikibaraja
Álbum: Buen día ( 2001)


Más Versiones
Ver. 2 Ver. 3 Ver. 4 Ver. 5 Ver. 6

Cambiar Cifrado
Americano Latino

Cambiar Tonalidad
-1 +1

Partir Pantalla Imprimir FAQ

+A
-A
´YO NO FUI´
intro: un golpe a cada acorde... re - re - re - la...
piano...
e|---------7-----7----------|--------7------7--------|nota:(vibrar)
B|--7-8-10---10-8--(10)-----|--7-8-10--10-8---(15)---|
G|-7--------------------(7)-|-7----------------------|
D|--------------------------|------------------------|
A|--------------------------|------------------------|
E|--------------------------|------------------------|
guitarra: Riff 1.......
e|-4/5-5-7-5-10-9-7-5--|
B|-6/7--7--------------|
G|-6/7-----------------|x4 veces masomenos...
D|---------------------|
A|---------------------|
E|---------------------|

D
Todos dicen: yo no fui, siempre escucho: yo no fui,
D D Db A
y nadie fue, y nadie fue,
D riff 1
todos dicen yo no fui.

Muchas cosas se están vendiendo en este gran almacén,

y alguien se fue, y
Riff 2
alguien se fue se fue diciendo: yo no fui.

G E
No soy un tipo que protesto
G A A-A-Ab-G
pero no me jodas o te tapo el culo con esto.
E A D Riff 2
Juntos pusimos mucho esfuerzo y nadie sabe en qué se usó.

solo de armonica: base igual que los versos

Los pibes ya no se bancan
que nadie se haga cargo alguien se quedó con un vuelto
nos hizo mal los mandados y a la hora de rendir,
y a la hora de rendir se fue
diciendo: yo no fui... ...(parece un circo, hermano)...

y pasen, pasen al circo mas adrenalinico del mundo,
tenemos a los payasos que
estan re puestos y no pueden hacer reir a nadie
y el domador tiene miedo de
meterse a la jaula del leon, yo tambien...
yo no fui,.....termina con el riff 1


Riff 2
e|-10-10----12p10---10-------------10----10-9/10--
B|-10---10-------10---10----12p10----10--10-9/10--
G|-11-----11------------11-------11------11-10/11--
D|-------------------------------------------------
A|-------------------------------------------------
E|-------------------------------------------------


[email protected]


ACORDES PARA GUITARRA

PIANO UKELELE
D
Db
A
G
E
Ab


COMENTARIOS

Aún no hay comentarios,

¡escribe el primero!

Escribe una pregunta, duda o comentario sobre esta canción, te responderemos a la brevedad.

Las más tocadas de Intoxicados

Toca una Canción al Azar de Intoxicados
D
Db
A
G
E
Ab