Compartir


Cambiar Cifrado
Americano Latino

Cambiar Tonalidad
-1 +1
Imprimir FAQ
+A
-A

Texto

Desplazamiento

Transportador

Color de Fondo

Archivos

-A
+A
 despues del 3er tiempo entra

G||--------9-7-------------|---------------------------|
D||--5/_9-----9-7---------|º--------------------------º| 
A||----------------9-7-----|---------------------------|
E||---------------------8\|º--------------------------º|
B||-------------------------|-2--2-2--2--2-2-2-2-0---|
                                     ayer me dijo un ave...
G||--------------------------------------------------------------------------------------||
D||-0h2-2-2-2-0-----------------------------------------------------------------------||
A||---------------2---------------------------------------------------------------------||
E||-----------------2-0------------------------------------------------------ 4-------||
B||---------------------2--2-2--2--2-2-4-5--5--4--4--2--2-2--2--2-2-2-2------------||

G||------------------------------------------------------------------||
D||------------------------------------------------------------------||
A||--------------------------------------------------4h6-4----------||
E||---------------------------------------------------------6-4-5----||
B||-2--2-2--2--(2)2-4-5--5--4--4--2--2-2--2--24----------------||
      que saque el aire de mis ojos
G||-----------------------------------------------------------------------------||
D||-----------------------------------------------------------------------------||
A||---------------6--6--6-9-6-7-9-6p5-----------------6--6-6-9-6-6/764-|
E||--5----5--5--5-----------------------5--5---5--5--5-----------------------||
B||-----5--------------------------------------5-------------------------------||
                                            para que nadie te haga daño...
G||-----------------------------------------------------------||
D||-----------------------------------------------------------||
A||----------------------------------------------------------||
E||--5--5---5--5--5-7--7------------------------------------||
B||--------5---------------7\0------------------------------||

G||-----------------------------------------------------------------------||
D||-------------------------------0h(2)0--------------------------------||
A||---------------------------------------2-0---------------------------||
E||-2--2-2--x--2-2-2-2-0--2-2--------------2-0-----------------------||
B||------------------------------------------------0-2--2-2--(2)2--2-2-||

G||---------------------------------------------------------------------------------||
D||---------------------------------------------------------------------------------||
A||---------------------------------------------------------------------------------||
E||---------------------------------------------5-2---------------------------------||
B||-4-5--5--4--4-4-4-4-4--2--2-2--2--2-2-2-----2--2-2--2--2-2-4-5--5--4--4-||

G||------------------------------------------------------------------------||
D||------------------------------------------------------------------------||
A||---------------------------------------------6--6--6-9-9-9--7-9-63-||
E||-----------------------6-4-5--5----5--5---5---------------------------||
B||-2--2-2--2--2-2h4-2------------5-------------------------------------||

G||------------------------------------------------------------------------||
D||--------------------------------4----------------------------------------||
A||-----------------4h6-4h6--4-6-6-4-3-5-4-2--------------------------||
E||-5--5---5--5--5--------------------------------5---5--5--5-7--7-------||
B||-------5-------------------------------------------5----------------0----||
                                                                  
G||-----------------------------------------------------------------------||
D||----------------------------------------------------------------------||
A||----------------------------------------------------5-3------2-3-4--||
E||---------------------------------------------------5----5-3-----------||
B||-0-2-3-2-0-2--2-2--2--2-2-2-2-0--2--2--2-5--3---------5---------||
  acompañando el solo del vampiro
G||---------------------------------------------------------||
D||-----------------------------------------------------2-||
A||-4-4--4--4-4-4-6-7--7--6--6--4--4-4--4-4-2-2------||
E||--------------------------------------------------4-4---||
B||---------------------------------------------------------||
                                                                              fin del solo
G||-----------------------------------------------------------||
D||----------------------9-------------------------------2-----||
A||-4--4-4-4--4-4-6-7-7-7--6-13-7-7-6-7-4--4-4-4-4-4---||
E||------------------------------------------7-------4-----4--||
B||-----------------------------------------------------------||
que saque el aire de mis ojos...
G||---------------------------------------------------------------------------||
D||---------------------------------------------------------------------------||
A||------------------6--6-9-9-9-6-7-6-4-----------------6--6-9--6-7-63-||
E||-5--5----5--5--5-----------------------5--5---5--5--5-------------------||
B||-------5--------------------------------------5---------------------------||
    que sea un guerrero de sangre...
G||-----------------------------------------------------------||
D||-----------------------------------------------------------||
A||-----------------------------------------------------------||
E||-5--5---5--5--5-5-5--5--7-----------------------4/9-7---||
B||-------5---------------------0-2--2-2--2-2-2--2----------||
para que nadie te haga daño                           x3
G||--------------------------------------------------||
D||º-------------------------------------------------º||
A||------------2--2-2--1-2------------------2/4-2-||
E||º-5--5-5--5--------------------------------------º||
B||-------------------------2--2-2--2-2-2--2-------||
acompañando el solo2 del vampiro
|----------------------------------------6//15---||
|--------------------------------------------------||
|--------------2-2--2--2-4-4-4--4-4-4------------||
|-5-5--2-5--5----4----------5--5---5-------------||
|---------------------------------------------------||

|-----------------------------------------------------------||
|-----------------------------------------------2-2-0------||
|--------------2-2-2--4-4-4-2-4-2-0-2-4-4-2------2-----||
|-5-5--2-5--5----4-----------------------------------5---||
|-----------------------------------------------------------||

|---------------------------------------------------------||
|---------------------------------------------------2---||
|---------2--2-2--2-4--4-4--4-4-4-4--2---------2-2-2-||
|-5-5--5----------------------------------5--5-5--------||
|---------------------------------------------------------||

|--------------------------------------------------------------6//16-----||
|--------------------------------------------------------------------||
|-4--4-4--2-4-4--4-4-2---------2--2-2--2-4--4-4--2-4-4--2----||
|-------------------------5--5-5-----------------------------------||
|-------------------------------------------------------------------||
                                                                                           fin
|-----------------------------------------------------------------||
|-------------------------------------------0-2-0-----------------||
|--------------------------------------------------2-0------2-4_--||
|-5--5-7-----------------------------------------------2-0-------||
|----------2--2-2--x--2-2-2-2-0--2--2-2------------------------||


este bajeo es medio dificil pero si escuchas la cancion con este tab le agarras
NOTA:ESTA PERFECTAMENTE TRANSCRITO NO CONTIENE NINGUN ERROR


Video Clip de Ayer me dijo un ave


ACORDES PARA GUITARRA

PIANO UKELELE


TOP 20: Las más tocadas de Jaguares


Toca una Canción al Azar de Jaguares

Acordes

Cerrar

07.00

x

95