Lobo
Jaguares
Acordes

Subida por antonio
Álbum: 45 ( 2008)


Más Versiones
Ver. 2 Ver. 3 Ver. 4
+A
-A
Intro:
( 2 veces )
E|-----------------------------------------------------------|
B|-----------------------------------------------------------|
G|-----------------------------------------------------------|
D|-----------------------------------------------------------|
A|--7-7-7-7-7-7-7-5-5-5-5-5-5-5-3-3-3-3-3-3-3-1-1-1-1-1-1-1--|
E|--7-7-7-7-7-7-7-5-5-5-5-5-5-5-3-3-3-3-3-3-3-1-1-1-1-1-1-1--|

( 2 veces )
E|--X--------X--------X--------X---------|
B|--6--------6--------6--------6---------|
G|--7--------7--------7--------7---------|
D|--7-7-5-7--7-7-5-7--7-7-5-7--7-7-5-7---|
A|--5--------5--------5--------5---------|
E|--5--------5--------5--------5---------|


Am G F Dm
Vienes a cambiar mi instinto mi manada mi razón
Am G F Dm
mi guarida languidece, se humedece, se pone gris
D
mis colmillos entumidos en posición fetal
Am G F Dm
huelo tu carne esta muy cerca reacción letal.


( 2 veces este riff )
E|--X--------X--------X--------X---------|
B|--6--------6--------6--------6---------|
G|--7--------7--------7--------7---------|
D|--7-7-5-7--7-7-5-7--7-7-5-7--7-7-5-7---|
A|--5--------5--------5--------5---------|
E|--5--------5--------5--------5---------|


Am G F Dm
Quebrantante mi doctrina, mi creencia, mi convicción
Am G F Dm
derramaste tus misterios, controlaste mi sufrir
D
soy depredador, soy carnicero, enemigo mortal
Am G F Dm
soy la bestia fugitiva escondida en tu pasión.


(esto es lo que toca el piano en esta parte de la rola)
Bm G C Em D
E|--7-------7-------8-------7-------5-------|
B|--7-------8-------8-------8-------7-------|
G|--7-------7-------9-------9-------7-------|
D|------------------------------------------|
A|------------------------------------------|
E|------------------------------------------|
Bm G C Em D
Y vivo como un Dios amarrado a su corazón

(cambia al final por que termina con un riff enves de D)
Bm G C Em
E|--7-------7-------8-------7-------|
B|--7-------8-------8-------8-------|
G|--7-------7-------9-------9-------|
D|----------------------------------|
A|----------------------------------|
E|----------------------------------|
Bm G C Em D|---4---4---4-5-|
huyo como un Dios atrapado en su oración. A|-5---5---5-----|



Em F#m G C D|---4---4---4-5-|
Me salve del mundo de su furia pero no de ti A|-5---5---5-----|

Em F#m G C D|---4---4---4-5-|
lloro como un loco, como un lobo aullaría por ti. A|-5---5---5-----|


Em F#m G C D|---4---4---4-5-|
Me salve del mundo de su furia pero no de ti A|-5---5---5-----|

Em F#m G C D|---4---4---4-5-|
lloro como un loco, como un lobo aullaría por ti. A|-5---5---5-----|


Em F#m C Bm
Ah, ah, ah, ah,

Em F#m C Bm
ah, ah, ah, ah.

solo:
E|------------------------------------------------------------
B|-----------------13------12-----10-------------------10~~~~~
G|---9~~~~~10--9----------------------------------------------
D|---------------------------------------10~~~~~-12~~~~~------
A|------------------------------------------------------------
E|------------------------------------------------------------

E|--12----13--12---10-----12---10---------------------------------|
B|---------------------------------10---13------------------------|
G|------------------------------------------9~~~~~7~~~~~----------|
D|----------------------------------------------------7---10~~~~~-|
A|----------------------------------------------------------------|
E|----------------------------------------------------------------|

Am G F Dm
Descubriste en mi mirada una piadosa hembra inmortal
Am G F Dm
desde el rincón me lanzo al cuello y no puedo morder
D
suspendido sobre el aire masticando tu pudor
Am G F Dm
acostado entre tus brazos me preparo para adorar.


( se repite lo del piano )
Bm G C Em D
E|--7-------7-------8-------7-------5-------|
B|--7-------8-------8-------8-------7-------|
G|--7-------7-------9-------9-------7-------|
D|------------------------------------------|
A|------------------------------------------|
E|------------------------------------------|
Bm G C Em D
Y vivo como un Dios amarrado a su corazón

(cambia al final por que termina con un riff enves de D)
Bm G C Em
E|--7-------7-------8-------7-------|
B|--7-------8-------8-------8-------|
G|--7-------7-------9-------9-------|
D|----------------------------------|
A|----------------------------------|
E|----------------------------------|
Bm G C Em D|---4---4---4-5-|
huyo como un Dios atrapado en su oración. A|-5---5---5-----|



Em F#m G C D|---4---4---4-5-|
Me salve del mundo de su furia pero no de ti A|-5---5---5-----|

Em F#m G C D|---4---4---4-5-|
lloro como un loco, como un lobo aullaría por ti. A|-5---5---5-----|


Em F#m G C D|---4---4---4-5-|
Me salve del mundo de su furia pero no de ti A|-5---5---5-----|

Em F#m G C D|---4---4---4-5-|
lloro como un loco, como un lobo aullaría por ti. A|-5---5---5-----|


gracias y saludos a toda la flota!
lloro como un loco, como un lobo aulló por ti... te quiero Brisa


ACORDES PARA GUITARRA

PIANO UKELELE
Am
G
F
Dm
D
Bm
C
Em
F#m


COMENTARIOS

Aún no hay comentarios,

¡escribe el primero!

Escribe una pregunta, duda o comentario sobre esta canción, te responderemos a la brevedad.

Las más tocadas de Jaguares

Toca una Canción al Azar de Jaguares
Am
G
F
Dm
D
Bm
C
Em
F#m