Déjate Ver
Jaguares
Acordes

Subida por Jaromo
Álbum: El equilibrio de los Jaguares ( 1996)


Más Versiones
Ver. 2 Ver. 3 Ver. 4 Ver. 5 Ver. 6
+A
-A
DANNY esta cancion va dedicada para los pinches gringos que creen que
somos nadie o para alguna novia que nos menosprecia
intro es con el e-bow o se puede tocar sin volumen y ya ke tocas
la nota,le vas subiendo al volumen
Dejate ver |||jose manuel aguilera usa varios efectos de pedal
conoci el sabado a jose manuel aguilera

INTRO: feedback o ebow

e:--12~~~~~--~~~~~-------------------------12~~~~~--x2
B:--------------------12v-------10~~~~~~~~----------
-----------------------------------------------------
-----------------------------------------------------
-----------------------------------------------------
-----------------------------------------------------
Se hace la segunda vez
Am G1
-------------------------------
--1-1--1-1---------1-1--1-1----
--2-2--2-2--0--0-x-2-2--2-2-0-0
--2-2--2-2--0--0-x-2-2--2-2-0-0
--0-0--0-0--2--2-x-0-0--0-0-2-2
------------3--3------------3-3
VERSO:
Am C
Piensas que el absurdo es mi enemigo
Am G1 D
Que las sombras se obscurecen estando quietas
Am C
Piensas que los fuegos vienen de lejos
Am G1 D(Pausa)
Que no soy capaz de arder estando quieto.

PUENTE:
Em F G
Pues déjate ver
--------------------------
--------------------------x2
-9v-10v---12v-12/14v------
--------------------------
------wah wah-------------
--------------------------
Em F G
Pues déjate ver.
VERSO 2:
-12v-----------12v---10---17-19-20
-----12bv-10v--10v----------------
----------------------------------
----------------------------------
----------------------------------
----------------------------------
Sobre el verso
Am C
Piensas que el inframundo no es profundo
Am G2 D
Que el destino no es aliado del abismo
Am C
Piensas que la suerte no es sincera
Am G2 G1 (Pausa)
Que la risa es pasajera y está de luto.
PUENTE
Pues dejate verx2
CORO:
---------------|-----------
X3-------------|-----------x2
--------------2|-2/4/5v----
---------------|-----------
------5p3---3--|-----------
--5-5-----5----|-----------
Sobre el coro
Am C D F G
Deja ya de sentirte un semidios de un ser infeliz
Am C D F G (Pausa)
Entiende ya que para poder llorar no hace falta matar.

Solo: Am/G1/Am/G1-G (Pausa)
12v---10p12p10h12p10h12--------------------------
------------------------13-12-10-12b13r--12vv----
---------------------------------------------7-5-7bvv
-------------------------------------------------
-------------------------------------------------
-------------------------------------------------
VERSO 3:
Am C
Sabes que el infierno lo tienes cerca
Am G1 D (2 ultimos acordes wah)
Que tu mirada reflejó el azufre obscuro
Am C
Piensas que los cielos te pertenecen
Am G1 D (2 ultimos acordes wah)
Y nunca has estado hincado hante una nube.
---------------|----------- coro
X3-------------|----------5h6p5
--------------2|-2/4/5v--------5 se repite
---------------|-----------
------5p3---3--|-----------
--5-5-----5----|-----------
Am C D F G
Deja ya de sentirte un semidios de un ser infeliz
Am C D F G
Entiende ya que para poder llorar no hace falta matar;
Am C D F G
Deja ya de sentirte un semidios de un ser infeliz
Am C D F
Entiende ya que para poder llorar no hace falta matar...
solo
-------------------------------10h12p10----
--10h13p10----10h13p10----10h13---------13-x3
-----------12----------12------------------
-------------------------------------------
-------------------------------------------
-------------------------------------------

-/12v/15/15v/17--15-17-15-17/20---17p15-20-17p15-20-17p15-20
---------------------------------------------------------------
---------------------------------------------------------------
---------------------------------------------------------------
---------------------------------------------------------------
---------------------------------------------------------------

-17p15-20-17p15-20-17p15-20-17p15-17p15-17hbr-15------------------
-------------------------------------------------17hbr-15-17hbr-15
------------------------------------------------------------------
------------------------------------------------------------------
------------------------------------------------------------------
------------------------------------------------------------------

-------15-17-20-17-15-------------------------20-19--
--17hb----------------17hbr-15-17hbr-15-17hbr--------
-----------------------------------------------------
-----------------------------------------------------
-----------------------------------------------------
-----------------------------------------------------

-17p15-20-17p15-20-17p15-20-17p15-17p15-17hbr-15------------------
-------------------------------------------------17hbr-15-17hbr-15
------------------------------------------------------------------
------------------------------------------------------------------
------------------------------------------------------------------
------------------------------------------------------------------

-------15-17-20-17-15-------------------------20-20b-
--17hb----------------17hbr-15-17hbr-15-17hbr--------
-----------------------------------------------------
-----------------------------------------------------
-----------------------------------------------------
-----------------------------------------------------

---------------------------------------------------
---------------------------------------------------
---------------------------------------------------
--------------7--------------7---------------3-5/7/10-
------5p3---3--------5p3---3-------5-3---3-5----------
--5-5-----5------5-5-----5-----5-5-----5--------------

----------------------------------10h12p10--------------------
----10h13p10----10h13p10----10h13---------13-17hbr-15-17hbr-15
-12----------12----------12-----------------------------------
-------------------------------------------------------------
------------------------------------------------------------
--------------------------------------------------------------
T T T T
--17p15-20-17p15-20---20-17-15-20-17-15-20-17-15-20-17-15-20bv
--------------------------------------------------------------
--------------------------------------------------------------
--------------------------------------------------------------
--------------------------------------------------------------
--------------------------------------------------------------
Am/C/D/F
¡N o o o o o!...
Am/C/D/F (Se repite Hasta que termine)
Am C D G1 G F E
|--0---0---2----0----3---1---0--|
|--1---1---3----0----3---1---0--|
|--2---0---2----0----0---2---0--|
|--2---2---0----0----0---3---2--|
|--0---3---x----2----2---3---2--|
|--x---3---2----3----3---1---0--|


ACORDES PARA GUITARRA

PIANO UKELELE
B
Am
G
C
D
Em
F
G
G2
Am/C
E


COMENTARIOS

Aún no hay comentarios,

¡escribe el primero!

Escribe una pregunta, duda o comentario sobre esta canción, te responderemos a la brevedad.

Las más tocadas de Jaguares

Toca una Canción al Azar de Jaguares
B
Am
G
C
D
Em
F
G
G2
Am/C
E