El León
Jaguares
Acordes

Subida por VYNZETT


Más Versiones
Ver. 2 Ver. 3

Cambiar Cifrado
Americano Latino

Cambiar Tonalidad
-1 +1

Partir Pantalla Imprimir FAQ

+A
-A
Esta canción la puedes bajar de jaguares.com en lugar de comprar
el disco.

Am
Un león se escapó de su jaula
Por descuido de su domador
Dm
Se que el esta con hambre
No come desde anoche
Em
Peligra que se coma a mi bombón

Am
Un león anda suelto en la calle
Mi hermanita aún no volvió
Dm
Como ella esta gordita
no quiero ni pensar
Em
Del banquete que puede darsele hoy


D5
A usted que esta en su casa
A5
Un consejo le doy
D5
Cierre las ventanas
A5
tranque bien el portón
D5
Pues en algún momento
A5
Por delante o detrás

B5 E5
Puede aparecer el tal león



Am
Un león escapó de su jaula
Calamidad igual nunca ví
Dm
Jamás tendrá problemas
Con su alimentación
Em
Si se encuentra a mi hermanita por ahí



e ||--5--555---5-555---7--777---7-777--8--888--8-888---7-777--7-777----||
B ||--5--555---5-555---7--777---7-777--8--888--8-888---7-777--7-777----||
G ||-------------------------------------------------------------------||
D ||-------------------------------------------------------------------||
A ||-------------------------------------------------------------------||
E ||-------------------------------------------------------------------||

Am G7 F7 E7
e ||-5--555--5-555---7--777---7-777-|--5-------3-------1--------0------||
B ||-5--555--5-555---7--777---7-777-|--5-------3-------1--------0------||
G ||--------------------------------|--5-------4-------2--------1------||
D ||--------------------------------|--7-------3-------1--------0------||
A ||--------------------------------|--7-------5-------3--------2------||
E ||--------------------------------|--5-------3-------1--------0------||

e ||---5----3----2----0------------||
B ||---5----3----2----0------------||
G ||-------------------------------||
D ||-------------------------------||
A ||-------------------------------||
E ||-------------------------------||

D5
A usted que esta en su casa
A5
Un consejo le doy
D5
Cierre las ventanas
A5
tranque bien el portón
D5
Pues en algún momento
A5
Por delante o detrás
B5 E5
Puede aparecer el tal león



Am
Un león escapó de su jaula
Calamidad igual nunca ví
Dm
Jamás tendrá problemas
Con su alimentación
Em
Si se encuentra a mi hermanita por ahí
E7 A5 G7 F7
Si se encuentra a mi hermanita por ahí
E7 A5 G7 F7
Si se encuentra a mi hermanita por ahí


Final Am
E ||---5-5-5-5-5-5-5-5... ---5---
B ||---5-5-5-5-5-5-5-5... ---5---
G ||------------------------... ---5---
D ||-----------------------... ---7---
A ||-----------------------... ---7---
E ||-------------------------... ---5---


Am G7 F7 E7 Dm D5 B5 Em A5 E5
e ||---5-----3------1------1------------------7------0-------5----7--
B ||---5-----3------1------0-------0-----5----9------0-------7----9--
G ||---5-----4------2------1-------0-----7-----------0--------------------
D ||---7-----3------1------0-------2-----------------2--------------------
A ||---7-----5------3------2-------3-----------------2--------------------
E ||---5-----3------1------0-------1-----------------0------------------

////////////////// ¿Te Animas? Sube una canción a este sitio. //////////////////

ACORDES PARA GUITARRA

PIANO UKELELE
Am
Dm
Em
D5
A5
B5
E5
B
D
E
G7
F7
E7
G
A


COMENTARIOS

Aún no hay comentarios,

¡escribe el primero!

Escribe una pregunta, duda o comentario sobre esta canción, te responderemos a la brevedad.

Las más tocadas de Jaguares

Toca una Canción al Azar de Jaguares
Am
Dm
Em
D5
A5
B5
E5
B
D
E
G7
F7
E7
G
A