El ultimo planeta
Jaguares
Acordes

Subida por Jhonathan3345
Álbum: Cuando la sangre galopa ( 2001)


Más Versiones
Ver. 2 Ver. 3 Ver. 4 Ver. 5 Ver. 6
+A
-A
Em             G   D           A
Si tuviera que derramarme para salvarte
Em G D A
si tuviera que dejar de ser para que fueras


E |------------------------------------------------
A |------------------------------------------------
D |------------------------------------------------
G |----------4-----------4---------4-----------5---
B |--------5---5---5---7-----5---5-----------5-----
e |--4-5-4-------7---5-----5---5-----5-4-5-4-------


E |------------------------------------------------
A |------------------------------------------------
D |------------------------------------------------
G |--12---------12-11----------11-7-9----12--------
B |-----10---10-------10----10-----------12--------
e |-------12-------------12--------------12--------

Em G D A
Si tuviera que esconder al mundo para que no sufras
Em G D A
Si tuviera que retar a la muerte para que existas
Em G D A
Lo haría de aqui hasta el ultimo planeta
Em G D A
Lo haría de aqui hasta el ultimo planeta


Em G D A
E |---0----|----3----|----0----|----0----|
A |---2----|----2----|----0----|----0----|
D |---2----|----0----|----0----|----2----|
G |---0----|----0----|----2----|----2----|
B |---0----|----3----|----3----|----2----|
e |---0----|----3----|----2----|----0----|



Esta es una tabulación acústica simple espero y les pueda
servir. Recibo sugerencias acerca de esta cación.


ACORDES PARA GUITARRA

PIANO UKELELE
Em
G
D
A


COMENTARIOS

Aún no hay comentarios,

¡escribe el primero!

Escribe una pregunta, duda o comentario sobre esta canción, te responderemos a la brevedad.

Las más tocadas de Jaguares

Toca una Canción al Azar de Jaguares
Em
G
D
A