Compartir


Cambiar Cifrado
Americano Latino

Cambiar Tonalidad
-1 +1
Imprimir FAQ
+A
-A

Texto

Desplazamiento

Transportador

Color de Fondo

Archivos

-A
+A
Intro:


Primera guitarra solo toca esto:

|-----4----5---4---|
|-7----------------|
|------------------|
|------------------|
|------------------|
|------------------|

segunda guitarra:
|--4-----4---------|
|7----5-----7------|
|------------------|
|------------------|
|------------------|
|------------------|

es esa parte de ese espejo, que no refleja pero mira

Y luego cuando empieza a cantar: es el que sabe...

|---------7h9-----9----9-|
|-7-------7----7-----9---|
|------------------------|
|------------------------|
|------------------------|
|------------------------|

cuando acaba el primer verso viene esto:
|----4-----------------------------|
|-7-----5---3----5---3--3---1--3---|
|----------------------------------|
|----------------------------------|
|----------------------------------|
|----------------------------------|

cuando empieza con toda y la bateria
|-----------------|
|-7---7---7-------|
|---6---6---6----|
|----------------|
|-----------------|

el solo al final:
|-----------------------------------------------------|
|7h9-9-9-9h7-7-7h9-9-9-9h7-7--7h10-10-10-10h7--7------|
|-----------------------------------------------------|
|-----------------------------------------------------|
|-----------------------------------------------------|
|-----------------------------------------------------|

|-----------------------------------------------------|
|-7h10-10-10-10h7--9h10-10-10-10h9-9-9h10-10-10-10h9--|
|-----------------------------------------------------|
|-----------------------------------------------------|
|-----------------------------------------------------|
|-----------------------------------------------------|

|-----------------------------------------------------|
|-12h14-14-14-14h12-12-12h14-14-14-14-12--------------|
|-----------------------------------------------------|
|-----------------------------------------------------|
|-----------------------------------------------------|
|-----------------------------------------------------|
 se repite hasta el final

estoy casi seguro que esta correcta esta tablatura si hay
unos errores pues arreglenglo ustedes mismos.


Video Clip de Espejo


ACORDES PARA GUITARRA

PIANO UKELELE


TOP 20: Las más tocadas de Jaguares


Toca una Canción al Azar de Jaguares

Acordes

Cerrar

23.12

x

58