Quisiera Ser Alcohol
Jaguares
Acordes

Subida por angelrgonzalezg
Álbum: Bajo el azul de tu misterio ( 1999)


Más Versiones
Ver. 2 Ver. 3 Ver. 4 Ver. 5 Ver. 6
+A
-A
bueno esta es la correccion de todas las anteriores
por que en algunas notas stan mal



Intro:
e|--7-7------------------7-7------------------7-7------------------7-7------|
B|--5-5-5--7-7-7--5-5-5--5-5-5--7-7-7--5-5-5--5-5-5--7-7-7--5-5-5--5-5-5-7--|
G|--------------------------------------------------------------------------|
D|--------------------------------------------------------------------------|
A|--------------------------------------------------------------------------|
E|--------------------------------------------------------------------------|

Em
Si mis plegarias
Em/D# Em/D
no fueran, a la virgen
C#m(no5)
SI no ati

Em
¿Que pensarias?
Em/D#
¿Que dirias?
Em/D C#m(no5)
si de la noche, soy un pedazo


F#
Del suelo que flota

Entre tus sueños

F Em
Como una perla
F Em
Te saco de lo obcuro
F Em
Te llamo por tu nombre
F
Y digo que no puede ser....


Am F#m/5- G riff1 Em
Qui siera ser alcohol

Am F#m/5- G riff1 Em
Pa...ra evaporarme en tu interior

Am F#m/5- G riff1 Em
Qui siera ser alcohol

Am F#m/5- G riff1 Em
Pa...ra evaporarme de una vez

G riff1 Em
Y sentir lo que es pasion

F
Y sentir que soy querido
Am
Una vez......

INTRo

Em
Si algun dia
Em/D# Em/D
Me miras, abrasado
C#m(no5)
De tu sombra


F#
No me separes, dejame solo

Sin movimiento

F Em
Como una lagrima
F Em
Que corre por tu cuerpo
F
Lamiendote toda la piel


Am F#m/5- G riff1 Em
Qui siera ser alcohol

Am F#m/5- G riff1 Em
Pa...ra evaporarme en tu interior

Am F#m/5- G riff1 Em
Qui siera ser alcohol

Am F#m/5- G riff1 Em
Pa...ra evaporarme de una vez
G riff1 Em
Y sentir lo que es pasion
F
Y sentir que soy querido
Am
Una vez......

Riff
e-----------
B-----------
G-----------
D-----------
A-----------
E---3--2----
y caes en Em


Em7D# Em/D C#m(no5) F#m/5-
e|--0------0-------0--------0-|
B|--0------0-------0--------1-|
G|--0------0-------0--------2-|
D|--1------0-------2--------0-|
A|--2------2-------4--------0-|
E|--0------0-------0--------2-|

bueno eso es todo espero que les sirva


ACORDES PARA GUITARRA

PIANO UKELELE
Em
Em/D#
Em/D
B
C#m
F#
F
Am
G


COMENTARIOS

Aún no hay comentarios,

¡escribe el primero!

Escribe una pregunta, duda o comentario sobre esta canción, te responderemos a la brevedad.

Las más tocadas de Jaguares

Toca una Canción al Azar de Jaguares
Em
Em/D#
Em/D
B
C#m
F#
F
Am
G