Vine para creer
Jaguares
Acordes

Subida por Jolo


Más Versiones
Ver. 2

Cambiar Cifrado
Americano Latino

Cambiar Tonalidad
-1 +1

Partir Pantalla Imprimir FAQ

+A
-A
Así empieza

Bm(x2) C#m(x2)
1--------------------------|-------------------------------
2-------3-----5-----3------|-------5-----7-----5-----------
3---4------4-----4-----4---|---6------6-----6-----6--------
4--------------------------|-------------------------------
5--------------------------|-------------------------------
6--------------------------|-------------------------------

Bm
En el filo me deslizo lento como el tiempo avanzo
G
Amarro días desato entrañas así me invento y así existo
Bm
Soy la guerra soy la lucha yo sin cielo implacable ser
G
Ser sin inicio tu primer paso así me invento y así existo
Em
En el filo empiezo y me equivoco y encuentro inmensidad
G
Desdoblando humanos seremos raza inmaculada
Em
Desdoblando almas aremos dioses rescatables
Bm
Así, así me invento y así existo
Bm
Así, así me invento y así existo
Bm
Así, así me invento y así existo
Bm
Así, así me invento y así existo

Sigue un solo

Después se toca asi
1--------------------------------------------------------------------
2------0-0-0-0-0-0-0-0-0-0-0-0-0-0-0-0-0-0-0-0-0-0-0-0-0-0-0-0-------
3-----4-4-4-4-4-4-4-4-4-4-4-4-4-4-4-4-4-4-4-4-4-4-4-4-4-4-4-4--------
4--------------------------------------------------------------------
5--------------------------------------------------------------------
6--------------------------------------------------------------------

Después así

3 veces
1----------------------|------------------8-7--|---------------------
2----------------------|------6---6-----8------|---------------------
3--2--4-5-4--4-5-4-2-0-|--5-----5-----7--------|---------------------
4----------------------|-----------------------|---------------------
5----------------------|-----------------------|---------------------
6----------------------|-----------------------|---------------------
Y volví para creer para vivir
1----------------------|------------------8-7--|---------------------
2----------------------|------6---6-----8------|---------------------
3--2--4-5-4--4-5-4-2-0-|--5-----5-----7--------|---------------------
4----------------------|-----------------------|---------------------
5----------------------|-----------------------|---------------------
6----------------------|-----------------------|---------------------


ACORDES PARA GUITARRA

PIANO UKELELE
Bm
C#m
G
Em


COMENTARIOS

Aún no hay comentarios,

¡escribe el primero!

Escribe una pregunta, duda o comentario sobre esta canción, te responderemos a la brevedad.

Las más tocadas de Jaguares

Toca una Canción al Azar de Jaguares
Bm
C#m
G
Em