Y Si
Jaguares
Acordes

Subida por sportuondo
Álbum: Crónicas de un laberinto ( 2005)


Más Versiones
Ver. 2 Ver. 3 Ver. 4
+A
-A
Aqui les mando una canción del nuevo disco, espero que les guste, a mi
en lo personal me parece de las mejores del disco.
Es para ti Jasmin, me sigues doliendo!!

Verso:
F#m D
Y si nos perdemos y lo perdemos todo
e|-5----
B|-7-7--
G|---7--
G F#m
perdimos el regreso ¿que tanto perdemos?
e|-3-2-0--
B|-3-3-0--
F#m D
Y si me vuelvo loco y pierdo la conciencia
e|-5----
B|-7-7--
G|---7--
G F#m
y lo único que siento, son tus ojos que miran.
e|-3-2-0--
B|-3-3-0--
Coro:
G Em
Y si no es asi, como será
B|-17--------
G|----16-14--
G Em
Y si no eres tu, ¿quién será?
B|-17--------
G|----16-14--
G Em
Y si no es asi, no será
B|-17--------
G|----16-14--
G Em F
Y si no eres tu, yo no soy.
B|-17--------
G|----16-14--
Verso:
F#m D
Y si le robamos un instante al tiempo
e|-5----
B|-7-7--
G|---7--
G F#m
y que se vuelva eterno y que el olvido olvide
e|-3-2-0--
B|-3-3-0--
F#m D
y si deberas pasa y pasa como karma
e|-5----
B|-7-7--
G|---7--
G F#m
y si soy el que cruza, te moririas conmigo.
e|-3-2-0--
B|-3-3-0--
Coro:
G Em
Y si no es asi, como será
B|-17--------
G|----16-14--
G Em
Y si no eres tu, ¿quién será?
B|-17--------
G|----16-14--
G Em
Y si no es asi, no será
B|-17--------
G|----16-14--
G Em F
Y si no eres tu, yo no soy.
B|-17--------
G|----16-14--
Solo:
Em
e|-----20-19-17/14----------------------------------------------
B|--20-------------15/12--17-19-17-19-19-17-19-20p19-17-19-17--
G|-------------------------17-17-17-17-17-----------------------
D|--------------------------------------------------------------
Bm Em
e|---------------------------------15-14-15----17^~/19^~21^~---19-21^--
B|-----17-----------------------------------15---------------19---------
G|--19----19-18h19p18-16-11----16--------------------------------------
D|---------------------------16-----------------------------------------
A|----------------------------------------------------------------------
Bm F
e|--15-17-15----------14----14-----------------------------
B|-----------15----------17----17-15-----------------------
G|-----------------16----------------16--------------------
D|--------------16----------------------16h17p1612-1210~~
A|---------------------------------------------------------


ACORDES PARA GUITARRA

PIANO UKELELE
F#m
D
G
Em
F
Bm


COMENTARIOS

Aún no hay comentarios,

¡escribe el primero!

Escribe una pregunta, duda o comentario sobre esta canción, te responderemos a la brevedad.

Las más tocadas de Jaguares

Toca una Canción al Azar de Jaguares
F#m
D
G
Em
F
Bm