El vals del buen viajero
la Lupita
Acordes

Subida por emili68


Más Versiones
Ver. 2

Cambiar Cifrado
Americano Latino

Cambiar Tonalidad
-1 +1

Partir Pantalla Imprimir FAQ

+A
-A
Aqui va una buena versión de la cancion. Ojalá la disfruten.

Acordes

Dm A7 C G7/B Bb Am
E |--1--| |--0--| |--0--| |--0--| |--1--| |--0--|
B |--3--| |--2--| |--1--| |--3--| |--3--| |--1--|
G |--2--| |--0--| |--0--| |--0--| |--3--| |--2--|
D |--0--| |--2--| |--2--| |--0--| |--3--| |--2--|
A |--0--| |--0--| |--3--| |--2--| |--1--| |--0--|
E |--X--| |--X--| |--0--| |--X--| |--1--| |--0--|


Letra

Dm A7 Dm
Ella caminaba por el mágico camino de la niebla
A7 C G6/B Bb
mas bien parecía volar sobre la hierba, alma ligera
Dm A7 Dm
quería ver a Dios, abrir una puerta, dividirse en dos
A7 C G6/B Bb
comer de la mierda y encontrar un don, don de la tierra

Antes de entrar al coro tocas una ronda
con todos los acordes de la estrofa
CORO
C G6/B Am C G6/B Am
Alas pa´ volar y valor para brillar entre la luz
C G6/B Am C G6/B Am
Alas pa´ volar y valor para brillar entre la luz

Dm A7 Dm
Siguió caminando y con cada paso regalaba un miedo
A7 C G6/B Bb
y con cada miedo perdía algún recuerdo, alma olvidada
Dm A7 Dm
todo era más grande, todo era más vivo, todo tenía luz
A7 C G6/B Bb
y en medio de todo palpitabas tú, eras la vida

Antes de entrar al coro tocas una ronda
con todos los acordes de la estrofa

CORO
C G6/B Am C G6/B Am
Alas pa´ volar y valor para brillar entre la luz
C G6/B Am C G6/B Am
Alas pa´ volar y valor para brillar entre la luz

Dm A7 Dm
Y aunque despertase y ya no viviera entre la energía
Am C G6/B Bb
su alma ya no volvería a ser la misma, alma alterada
Dm A7 Dm
por mirar a Dios, abrir una puerta, dividirse en dos
A7 C G6/B Bb
comer de la mierda y encontrar un don, alma viajera

Antes de entrar al coro tocas una ronda
con todos los acordes de la estrofa
CORO
C G6/B Am C G6/B Am
Alas pa´ volar y valor para brillar entre la luz
C G6/B Am C G6/B Am
Alas pa´ volar y valor para brillar entre la luz


ARPEGIO
Para las estrofas, una guitarra lleva el arpegio y la otra los acordes en ritmo de vals.

Dm A7 Dm A7
E|----------1----|---------0----|----------1----|---------0----|
B|------3-----3--|-----2-----2--|------3-----3--|-----2-----2--|
G|----2---2------|---0---0------|----2---2------|---0---0------|
D|--0------------|--------------|--0------------|--------------|
A|---------------|-0------------|---------------|-0------------|
E|---------------|--------------|---------------|--------------|

C G6/B Bb Bb
E|----------0----|---------0----|---------1-----|---------1-----|
B|------1-----1--|-----3-----3--|-----3-----3---|-----3-----3---|
G|----0---0------|---0---0------|---3---3-------|---3---3-------|
D|---------------|--------------|---------------|---------------|
A|--3------------|-2------------|-1-------------|-1-------------|
E|---------------|--------------|---------------|---------------|

Para el coro, van en ritmo de vals

C G6/B Am Am B Am
E|----0-0--|----0-0--|----0-0--|----0----| Repites toda esta serie mientras |------------|
B|----1-1--|----3-3--|----1-1--|----1----| cantas el coro y al terminarlo, |-------1----|
G|----0-0--|----0-0--|----2-2--|----2----| tocas lo siguiente para entrar a |-----2------|
D|---------|---------|---------|--2------| la siguiente estrofa: |---2--------|
A|--3------|--2------|--0------|-------2-| |-0--------0-|
E|---------|---------|---------|---------| |------------|


Un saludo a toda la gente del atame y a Alejandro M. en Colombia.
Cualquier sugerencia pueden escribirme a mi correo.
Cristian M. Bogotá - Colombia


ACORDES PARA GUITARRA

PIANO UKELELE
Dm
A7
C
Bb
Am
E
B
G
D
A


COMENTARIOS

Aún no hay comentarios,

¡escribe el primero!

Escribe una pregunta, duda o comentario sobre esta canción, te responderemos a la brevedad.

Las más tocadas de la Lupita

Toca una Canción al Azar de la Lupita
Dm
A7
C
Bb
Am
E
B
G
D
A