Ja ja ja
la Lupita
Acordes

Subida por BISMARCKR21
Álbum: Tres-D ( 1996)


Más Versiones
Ver. 2 Ver. 3 Ver. 4 Ver. 5 Ver. 6

Cambiar Cifrado
Americano Latino

Cambiar Tonalidad
-1 +1

Partir Pantalla Imprimir FAQ

+A
-A
El Tab es sencillo pero rapido.

Intro:

e-/----------------------------
B-/----------------------------
G-/----------------------------
D-/-----------5-5-5-------4----
A-/-3-6-3-6-3-------3-6-3------
E-/----------------------------


Precoro (aqui el seis se repite muchas veces):

e-/-----------------------------------------3-3-5-5-6-6-6-6--
B-/---------------------------------3-3-6-6------------------
G-/---------------------3-3-4-4-5-5--------------------------
D-/---------3-3-4-4-5-5--------------------------------------
A-/-3-3-6-6--------------------------------------------------
E-/----------------------------------------------------------


Esto va enseguida de lo de arriba (2 veces):

e-/-----------------------------------
B-/-----------------------------------
G-/-----------------------------------
D-/-------------3-3-3-4-3-------------
A-/-3-3-3-6-6-6-----------6-3---------
E-/-----------------------------------


Eso es todo, va por Amorfo al Chilagre#hotmail.com


ACORDES PARA GUITARRA

PIANO UKELELE


COMENTARIOS

Aún no hay comentarios,

¡escribe el primero!

Escribe una pregunta, duda o comentario sobre esta canción, te responderemos a la brevedad.

Las más tocadas de la Lupita

Toca una Canción al Azar de la Lupita