El pais de la lujuria
la Lupita
Acordes

Subida por Jorge
Álbum: Tres-D ( 1996)


Más Versiones
Ver. 2 Ver. 3
+A
-A
Intro:                                                     Aqui entra el bajo 
e-11b--------------------11-11-11---11-11-9b11b9-------------------------------------/
b--------7--9--7b8-----------------------------------------7h8---7-8-10-8-7-7h8-7------/
g--------7------------9-7-----------------------------------------------------------------9----/
d------------------------------------------------------------------------------------------------/
a------------------------------------------------------------------------------------------------/
E----------------------------------------------------------------/

e-------------------------------/
b-7h8-7----7h8-7--------------/
g---------9--------7h9----------/
d-----------------------9-7-----/ Aqui es donde entra la bateria
a----------------------------9---/
E--------------------------------/

Verso:
Em C (SI tocan los acordes con raiz en la5a se oye mejor)
Despues de andar por ahi sintiendo todo el dia,
sonar contigo era lo que yo queria,
cerre los ojos y senti que me caia,
bienvenida al pais de la lujuria.

Sone que andaba por jardines lubricados,
y que llegaba a una zona oscura,
me recibio una mujer desnuda,
bienvenida al pais de la lujuria.

Y me llevo por los caminos del deseo,
por muchas caras y por muchos cuerpos,
pero es a ti a quien yo siempre quiero,
bienvenida al pais de la lujuria

En la sala azul habia solo dos mujeres,
que se reian y tocaban con los dientes,
eran felizes pero yo no me reia

Cuando termina de decir reia sigue esta figura antes del coro

g-----7----9-7------/
d-------7------9-7--/
a--7-----------------/



Coro: En esta parte se tocan los mismos2 acordes pero con estas figuras
Quiero amor dame amor quiero amor dame amor (varias veces)
e------------------------------------/
b------------------------------------/
g------9-7-----------7--------------/
d----------9-7---7-9--9------------/
a-7-7-----------7-------------------/
E------------------------------------/

Verso2:
En la sala amarilla se veian tres cuerpos que se amaban y gritaban,
gritar asi era lo que yo queria,
bienvenida al pais de la lujuria,
la sala blanca era sala llena ,
cuerpos unidos en sudor y esencia,
yo te buscaba entre la furia,
bienvenida al pais de la lujuria.

Solo:
e--------------------------------------------------------------------------------------------------/
b------------------------------------------------------------------------------12-12---------------/
g-9-11--7-9-7---------------------------------------------------------9---11-11-11--9--------------/
d-----9-------9-7-----7----9b10-7---9b9b9b---7-------7-9-7-9-11--11--------------11-9-7------------/
a------------------7-9---9----------9--------------9-7-9---------------------------------------9-7-/
E--------------------------------------------------------------------------------------------------/

e------------------------------------------12-14-12-14-12-14-15-15-14-----------------------------/
b-15----15-14-12----------------------------------------------------------------------------------/
g-14-14-----------14-12-------------------------------------------------------7----9-7------------/
d-------------------------14-12-14--12------------------------------------------7------9-7--------/
a------------------------------------------------------------------------------7-------------------/
E--------------------------------------------------------------------------------------------------/

La noche acaba el sol me pega,
cierro los ojos volvere a la tierra,
y me consuelo solo pensando ,
que cada noche te estare sonando

quiero amor dame amor (varias veces)

Bueno eso es todo si tienen dudas sobre todo en el solo ,
recuerden que es estilo jazz por lo tanto utiliza muchos tresillos,
solo sigan la escala de Cmayor o improvisenle adios.

////////////////// ¿Te Animas? Sube una canción a este sitio. //////////////////

ACORDES PARA GUITARRA

PIANO UKELELE
Em
C
B


COMENTARIOS

Aún no hay comentarios,

¡escribe el primero!

Escribe una pregunta, duda o comentario sobre esta canción, te responderemos a la brevedad.

Las más tocadas de la Lupita

Toca una Canción al Azar de la Lupita
Em
C
B