Too y tus Tatoos
la Lupita
Acordes

Subida por Franco


Más Versiones
Ver. 2 Ver. 3

Cambiar Cifrado
Americano Latino

Cambiar Tonalidad
-1 +1

Partir Pantalla Imprimir FAQ

+A
-A
luego del inicio de la bateria, se toca 2 veces Do, y la segunda vez

son tres veces, asi

G----------------------------------------
D----------------------------------------
A----3--3-------------3--3--3------------
E----------------------------------------

despues, mientras suena la guitarra, se toca asi:

G-------------------------------------------------------
D-------------------------------------------------------
A--3--3--3----6--6--6--6--6-----------------------------
E----------------------------3--3--3----6--6--6--6--6---

G--------------------------------------------------------
D--------------------------------------------------------
A--3--3--3--------------1--1--1----4--4--4--4--4---------
E----------4--4--4--4------------------------------------

y asi se toca tambien la primera estrofa. despues de esta,se oye un
momento la guitarra y se toca asi todo el tiempo que toque la guitarra:

G----------------------------------------------------------
D----------------------------------------------------------
A---3--3--3--3--3--3--3--3--3--3--3--3--3--3--3--3--3--3--3
E----------------------------------------------------------

despues la 2ª estrofa se toca como la 1ª parte.

El coro se toca asi:

G--------------------------------------------------------------
D--------------------------------------------------------------
A--0--0--0--0----3--3--3--3------------------------------------
E----------------------------3--3--3--3--4--3--4--3------------

despues del coro se toca como la primera parte.


ACORDES PARA GUITARRA

PIANO UKELELE


COMENTARIOS

Aún no hay comentarios,

¡escribe el primero!

Escribe una pregunta, duda o comentario sobre esta canción, te responderemos a la brevedad.

Las más tocadas de la Lupita

Toca una Canción al Azar de la Lupita