Supersonico
la Lupita
Acordes

Subida por MARYBEL
Álbum: Caramelo macizo ( 1998)


Más Versiones
Ver. 2 Ver. 3
+A
-A
Esta cancion esta de poka madre... no se porque no la han

pedido ni subido

G--------------------------------------------------------
D--------------------------------------------------------
A--------5--3--5--------5--3--5--------------------3--5--
E--5--5-----------5--5-----------3--3--3--5--5--5--------

G--------------------------------------------------------
D--------------------------------------------------------
A--------5--3--5--------5--3--5--------------------3--5--
E--5--5-----------5--5-----------3--3--3--5--5--5--------

El resto de la cancion se la lleva en el bajeo de D-G-A
pero en el coro cambia a... Bm-G-A
Ok? ahora escribire la rola para la guitarra

////////////////// ¿Te Animas? Sube una canción a este sitio. //////////////////

ACORDES PARA GUITARRA

PIANO UKELELE


COMENTARIOS

Aún no hay comentarios,

¡escribe el primero!

Escribe una pregunta, duda o comentario sobre esta canción, te responderemos a la brevedad.

Las más tocadas de la Lupita

Toca una Canción al Azar de la Lupita