La Paquita Disco
la Lupita
Acordes

Subida por Silva88


Más Versiones
Ver. 2 Ver. 3

Cambiar Cifrado
Americano Latino

Cambiar Tonalidad
-1 +1

Partir Pantalla Imprimir FAQ

+A
-A
Intro:

Am G Am
|----------------------------------------------------|
|----------------------------------------------------|
|------------------------12~~~~~---------------------|
|--14/12--14---------14--12~~~~~--14--14--14--14-----|
|--12---------14/16---------------12--12--12--12-----|
|----------------------------------------------------|

Dance All Night Baby Dance All Night X 3





A A G# G
|----------------------------------------------------|
|----------------------------------------------------|
|----------------------------------------------------|
|--14/12--14---------14----14-14-13-13-12~~~~~~------|
|--12---------14/16--------12-12-11-11-10~~~~~~------|
|----------------------------------------------------|

Dance All Night Baby Dance All Night





Am C Bm Am F#m G
|--x-x-x-x----8--8----7-7------x-x-x-x-----2-2-2----3-3-3---------|
|--x-x-x-x----8--8----7-7------x-x-x-x-----2-2-2----3-3-3---------|
|--x-x-x-x----9--9----7-7------x-x-x-x-----2-2-2----4-4-4---------|
|--7-7-7-7----10-10---9-9------7-7-7-7-----4-4-4----5-5-5---------|
|--7-7-7-7----x--x----x-x------7-7-7-7-----x-x-x----x-x-x---------|
|--5-5-5-5----x--x----x-x------5-5-5-5-----x-x-x----x-x-x---------|




Verso:

Am F#m G
|------------------------------------|
|------------------------------------|
|------------------------------------|
|--7~~~7-7-7-7-----------------------|
|--7~~~7-7-7-7---------5-5-5---------|
|--5~~~5-5-5-5--2-2-2--3-3-3---------|

Voy A Contar La Historia De Paqita
La Chavita Mas Loqita Qe A Pisado Este Lugar
Voy A Decir Qe Era La Chava Mas Feliz






Am
|------------------x-x-x-x-----------|
|------------------x-x-x-x-----------|
|------------------x-x-x-x-----------|
|--7~~~7-7-7-7-----7-7-7-7-----------|
|--7~~~7-7-7-7-----7-7-7-7-----------|
|--5~~~5-5-5-5-----5-5-5-5-----------|

Y Mas Prendida Qe Yo He Visto En Mi Vida







|-----------------------------------------------------------------------|
|----------------------------------------------------------------8-10---|
|--9-7-------------------------------------------------------7-9--------|
|-------9-7--7-5--------------------------------7--5-7--7-9-------------|
|-----------------7-5-------------------5/7/5--7------------------------|
|----------------------7-5--5-3---3/5/7---------------------------------|

Tu TU Tu Tu tu Tu Tu Tu Tu TU Tu Tu Tu Tu Tu Tu Tu TU Tu TU






Verso:

Am F#m G
|------------------------------------|
|------------------------------------|
|------------------------------------|
|--7~~~7-7-7-7-----------------------|
|--7~~~7-7-7-7---------5-5-5---------|
|--5~~~5-5-5-5--2-2-2--3-3-3---------|

Como A Las Ocho Ella Comienza
Y Se Pinta Y Se Peina Y Se Arregla Para Ir A Bailar
Como A Las Diez Llega Al Lugar






Am
|------------------x-x-x-x-----------|
|------------------x-x-x-x-----------|
|------------------x-x-x-x-----------|
|--7~~~7-7-7-7-----7-7-7-7-----------|
|--7~~~7-7-7-7-----7-7-7-7-----------|
|--5~~~5-5-5-5-----5-5-5-5-----------|

Y Se Dedica A Cotorrear A Vacilar Y A Bailar




|-----------------------------------------------------------------------|
|----------------------------------------------------------------8-10---|
|--9-7-------------------------------------------------------7-9--------|
|-------9-7--7-5--------------------------------7--5-7--7-9-------------|
|-----------------7-5-------------------5/7/5--7------------------------|
|----------------------7-5--5-3---3/5/7---------------------------------|

Tu TU Tu Tu tu Tu Tu Tu Tu TU Tu Tu Tu Tu Tu Tu Tu TU Tu TU




Am G Am
|----------------------------------------------------|
|----------------------------------------------------|
|------------------------12~~~~~---------------------|
|--14/12--14---------14--12~~~~~--14--14--14--14-----|
|--12---------14/16---------------12--12--12--12-----|
|----------------------------------------------------|

Dance All Night Baby Dance All Night X 3





A A G# G
|----------------------------------------------------|
|----------------------------------------------------|
|----------------------------------------------------|
|--14/12--14---------14----14-14-13-13-12~~~~~~------|
|--12---------14/16--------12-12-11-11-10~~~~~~------|
|----------------------------------------------------|

Dance All Night Baby Dance All Night




Em
|---------------------------------------|
|---------------------------------------|
|---------9----------------9------------|
|--9/0----9---------9/0----9------------|
|--7/0----7---------7/0----7------------|
|--0~~~~~~----------0~~~~~--------------|

Toda La Noche Sin Parar Arriba Abajo Del Lugar
Como Loqita Se Divertia Mientras Ella Repetia





|--5-5--x-x---------x-x--------------------------|
|--5-5--x-x-5-5-----x-x-5-5----------------------|
|--5-5--x-x-5-5-----x-x-5-5----------------------|
|--7-5/7x-x-7-5/7---x-x-7-5/7--------------------|
|-------x-x-x-------x-x-x------------------------|
|-------x-x-x-------x-x-x-------2-3-4-5----------|

Ah Ah Ah Ah Para Gozar Hay Qe Bailar
Para Gozar Hay Qe Bailar



|---------------------|
Am F# G G# |---------------------|
|-----------------------------| |---------------------|
|---7--7--7--7----4--5--6-----| |-->»>»>»>»>»>»>»>»>--|
|-----------------------------| |--»>»>»>»>»>»>»>»>»--|
|--5--5--5--5----2--3--4------| |---------------------|

Tu TU Tu Tu tu Tu Tu Tu Tu TU




Am F#m G
|------------------------------------|
|------------------------------------|
|------------------------------------|
|--7~~~7-7-7-7-----------------------|
|--7~~~7-7-7-7---------5-5-5---------|
|--5~~~5-5-5-5--2-2-2--3-3-3---------|

No se Da Cuenta De La Bronca Qe
Comienza En Esa Mesa Qe Nadie Puede COntrolar
Salen Las Armas Y Alguien Se Acelera Y



Am
|------------------------------------|
|------------------------------------|
|------------------x-x-x-x-----------|
|--7~~~7-7-7-7-----7-7-7-7-----------|
|--7~~~7-7-7-7-----7-7-7-7-----------|
|--5~~~5-5-5-5-----5-5-5-5-----------|

Sin Deberla Ni Temerla La Paqita Morira



Em
|---------------------------------------|
|---------------------------------------|
|---------9----------------9------------|
|--9/0----9---------9/0----9------------|
|--7/0----7---------7/0----7------------|
|--0~~~~~~----------0~~~~~--------------|

Toda La Noche Sin Parar Arriba Abajo Del Lugar
Como Loqita Se Divertia Mientras Ella Repetia





Am G Am
|----------------------------------------------------|
|----------------------------------------------------|
|------------------------12~~~~~---------------------|
|--14/12--14---------14--12~~~~~--14--14--14--14-----|
|--12---------14/16---------------12--12--12--12-----|
|----------------------------------------------------|

Dance All Night Baby Dance All Night X 3





A A G# G
|----------------------------------------------------|
|----------------------------------------------------|
|----------------------------------------------------|
|--14/12--14---------14----7-----6-----5~~~~~~~------|
|--12---------14/16--------7-----6-----5~~~~~~~------|
|--------------------------5-----4-----3~~~~~~~------|

Dance All Night Baby Dance All Night

=======================================================================

Por Fin Completa.

Dudas Aclaraciones O Correcciones Visita Mis Facebook:

http://www.facebook.com/profile.php?id=772817374


ACORDES PARA GUITARRA

PIANO UKELELE
Am
G
A
G#
C
Bm
F#m
Em
F#


COMENTARIOS

Aún no hay comentarios,

¡escribe el primero!

Escribe una pregunta, duda o comentario sobre esta canción, te responderemos a la brevedad.

Las más tocadas de la Lupita

Toca una Canción al Azar de la Lupita
Am
G
A
G#
C
Bm
F#m
Em
F#