1/2 Full
Pearl Jam
Acordes

Subida por BRAVOIGNACIO
Álbum: Riot Act ( 2002)


Más Versiones
Ver. 2 Ver. 3 Ver. 4 Ver. 5 Ver. 6
+A
-A
Guitar 1 (Stone): DADGBE
Guitar 2 (Mike): standard

stone's riffs:
--------------|----------------|----------------|-----------------------------
--------------|----------------|----------------|-----------------------------
--------------|----------------|----------------|-----------------------------
-5-4--5--7----|---3--8---2-----|--10--5--7---2--|-----------------------------
-5-4--5--7----|---3--8---2-----|--10--5--7---2--|-----------------------------
-5-4--5--7----|---3--8---2-----|--10--5--7---2--|-----------------------------

solo 1:
-----------------------------5-------8b---------------------------------------
--10b-8--------------------5---8-5-8----10-8-/10v--3-2-3-3/5vv-/7-5-3-0------
-----------7br-5---5vv--7b----------------------------------------------------
---------7-------7------------------------------------------------------------
------------------------------------------------------------------------------
------------------------------------------------------------------------------


------------------------------------------------------------------------------
-2h3p2-0-2-2h3p2p0------------------------------------------------------------
-------------------2-4b-------------------------------------------------------
------------------------------------------------------------------------------
------------------------------------------------------------------------------
------------------------------------------------------------------------------

solo 2:
------------------------------------------------------------------------------
-------------5--8--10--12--13--15-17-15-13-12-13-12-10-8-10-12-10------------
--7brp5-5-7-------------------------------------------------------------------
------------------------------------------------------------------------------
------------------------------------------------------------------------------
------------------------------------------------------------------------------

solo 3:
------------------------------------------------5-----/-17p15----17p15--------
-5--------8vv-10-8h10p85---------------------5-8b-/----------17-------17-----
-7b-7bvvv-----------------7p-5---7p-5---5--7b---------------------------------
-------------------------------7------7---------------------------------------
------------------------------------------------------------------------------
------------------------------------------------------------------------------


-17p15----15b--17-20-17-------------------------------------------------------
-------17---------------20-17--15-17-15--13-15-13-13-15b-15-13----13h15p13----
---------------------------------------------------------------14-------------
------------------------------------------------------------------------------
------------------------------------------------------------------------------
------------------------------------------------------------------------------
|--repeat--|

----------------------------5----5-8-10bp8p5----------------------------------
--13---------------------5---8b-------------8-10bp8p5-/8---------------------
--------7b--5h7p5--5-7-7b---------------------------------7bp5-5bp4p2-4-5-5---
------------------------------------------------------------------------------
------------------------------------------------------------------------------
------------------------------------------------------------------------------


------------------------------------------------------------------------------
------------------------------3-2-3p2p0---3vv-5vv-/--5-8b--------------------
-4-5-/7-7b-5-4-5-7bp5p42vv-------------2-------------------------------------
------------------------------------------------------------------------------
------------------------------------------------------------------------------
------------------------------------------------------------------------------


outtro:
----------------------------|-------------------------------------------------
----------------------------|-------------------------------------------------
----------------------------|-------------------------------------------------
--3--------8--------2-------|--3-----------3-3-3-3---0---7-7--7--7--0-3-3-3---
--3--------8--------2-------|--3-----------3-3-3-3---0---7-7--7--7--0-3-3-3---
--3--------8--------2-------|--3-----------3-3-3-3---0---7-7--7--7--0-3-3-3---
won't someone save... the world..

ACORDES PARA GUITARRA

PIANO UKELELE


COMENTARIOS

Aún no hay comentarios,

¡escribe el primero!

Escribe una pregunta, duda o comentario sobre esta canción, te responderemos a la brevedad.

Las más tocadas de Pearl Jam

Toca una Canción al Azar de Pearl Jam