Brain Of J.
Pearl Jam
Acordes

Subida por ACMUSIC
Álbum: Yield ( 1998)


Más Versiones
Ver. 2 Ver. 3 Ver. 4 Ver. 5 Ver. 6
+A
-A
Riff 1:

E---------------------------------|-------------------------
B---------------------------------|-------------------------
G---------------------------------|-------------------------
D---------------------------------|-------------------------
A-9-9-9-8-8-8-7-----------5-------|-9-9-9-8-8-8-7----------
E-7-7-7-6-6-6-5-----5-6-7---7-5---|-7-7-7-6-6-6-5----------
vib slide

Verse 1 (w/ Riff 1):

Who's got the brain of JFK -
What's it mean to us now?
Oh, it's not distrust,
But I can tell you this is no lie.

Chorus:

C Ab
The whole world will be different soon
Bb
The whole world will be relieved, yeah.
C Ab
The whole world will be different soon
Bb
The whole world will be relieved, yeah.

Second verse (w/ Riff 1)
Chorus

Solo break: (2x)
vib bend
E----------------------------------|--------------------------------------
B-16-16-16-15----------------------|-16-16-16-15--------------------------
G-------------------15----15-------|-------------------15(17)----17-15----
D----------------------------17-15-|-----------------------------------17-
A----------------------------------|--------------------------------------
E----------------------------------|--------------------------------------

Bridge:
G D G D G D Em D
G D G D G D Em D
G D
Then G D G D G D (switching every two beats instead of four, giving a
double-time feel)

Solo in B minor pentatonic (7th fret box position) w/ Riff 1 (4x)

Chorus
Chorus
Riff 1 (2x)

ACORDES PARA GUITARRA

PIANO UKELELE


COMENTARIOS

Aún no hay comentarios,

¡escribe el primero!

Escribe una pregunta, duda o comentario sobre esta canción, te responderemos a la brevedad.

Las más tocadas de Pearl Jam

Toca una Canción al Azar de Pearl Jam