Once
Pearl Jam
Acordes

Subida por elgrillo2020
Álbum: Ten ( 1991)


Más Versiones
Ver. 2
+A
-A
Introdução no baixo
/--------------------------------------------------------------------
/--------------------------------------------------------------------
/------------------5-------------------------------------------------
/---5-h-7----5-h-7---7-----------------------------------------------
/----------3---------------------------------------------------------
/--------------------------------------------------------------------

Introdução da guitarra
|-3--3-3--3--1----1--1---1---1--1--1--1--1--1--0-----0--0------------|
|-3--3-3--3--3----3--3---3---3--3--3--3--3--3--3-----3--3------------|
|-2--2-2--2--2----2--2---2---2--2--2--2--2--2--2-----2--2------------|
|-0--0-0--0--0----0--0---0---0--0--0--0--0--0--0-----0--0------------|
|--------------------------------------------------------------------|
|--------------------------------------------------------------------|
Após intro Bb e em seguida o riff abaixo

Riff 1 (3x)
|------------------------------------------------------/-------------|
|------------------------------------------------------/-------------|
|--0-h-2-h-3-p-2-h-3-p-2-2-h-3-h-5-p-2-h-3-p-2-h-3-p-2-/-2-2-2-2-----|
|------------------------------------------------------/-------------|
|------------------------------------------------------/-------------|
|------------------------------------------------------/-------------|


Riff 2 Durante os versos
/--------------------------------------------------------------------
/--------------------------------------------------------------------
/--0-h-2-h-3-p-2-h-3-p-2-h-3-p-2-h-3-h-5-----------------------------
/--------------------------------------------------------------------
/--------------------------------------------------------------------
/--------------------------------------------------------------------
Primeiro verso

I admit it...what's to say...yeah...
I'll relive it...without pain...mmm...


Pré refrão - A5 C5/A5 Bb5
|------------------------------|
|--2--junto-com-riff-1---------|
|--2---------------------------|
|--0---------------------------|
|------------------------------|
|------------------------------|
Backstreet lover on the side of the road
I got a bomb in my temple that is gonna explode
I got a sixteen gauge buried under my clothes, I play...



Refrão - G5 A5 Bb5 C5/G5 D5 Bb5 C5 (junto com a introdução da guitarra)

Once upon a time I could control myself
Ooh, once upon a time I could lose myself, yeah...


Repete primeiro verso


Oh, try and mimic what's insane...ooh, yeah...
I am in it...where do I stand?

Pré refrão - A5 C5/A5 Bb5
|------------------------------|
|--2--junto-com-riff-1---------|
|--2---------------------------|
|--0---------------------------|
|------------------------------|
|------------------------------|

Oh, Indian summer and I hate the heat
I got a backstreet lover on the passenger seat
I got my hand in my pocket, so determined, discreet...I pray...


Refrão - G5 A5 Bb5 C5/G5 D5 Bb5 C5 (junto com a introdução da guitarra)

Once upon a time I could control myself
Ooh, once upon a time I could lose myself, yeah...


no final entra o solo: Base do solo (A5/G5)
|-------------------------------|-----------5-------------------------
|--8b---8b-8-5------------------|----------5-8p5----------------------
|--------------7p5-7bp5---5h7-5-|-5s4----7b------7bp5---7-5-----------
|-----------------------7-------|-----5---------------7-----7-5-------
|-------------------------------|-------------------------------7-5b--
|-------------------------------|-------------------------------------

|---------------------------|-20b--20b-20b-20br-17----17--------------
|---------------------------|----------------------20----20b----------
|---------------------------|-----------------------------------------
|---------------------------|-----------------------------------------
|-5--3--5-5b-5-3---3-3-3-3~-|-----------------------------------------
|----------------5----------|-----------------------------------------

|--------0-|-------------8-----8----8----8-10-10bp8-10----------------
|-0-0-5--0-|----8---8h10---10~---10---10------------------------------
|-0-0-5--0-|-9----9---------------------------------------------------
|----------|----------------------------------------------------------
|----------|----------------------------------------------------------
|----------|----------------------------------------------------------
termina o solo com a nota Bb5
|---------------------------------------------------------------------
|--8-8-8-8-6p0--------------------------------------------------------
|--7-7-7-7-----6--5---------------------------------------------------
|---------------------------------------------------------------------
|---------------------------------------------------------------------
|---------------------------------------------------------------------


Após o solo uma pequena Bridge
Base - G5 D5 C#5 4x /Este pequeno trecho é feito em palm mute 3x
---3---3--3---------|-----3-p-1-3-s-5-3-----------------------------
---3---3--3---3-2---|-----------------------------------------------
---0---0--0---------|-----------------------------------------------
---0---0--0---------|-----------------------------------------------
--------------------|-----------------------------------------------
--------------------|-----------------------------------------------
You think I got my eyes closed
But I'm lookin' at you the whole fuckin' time...


Refrão G5 A5 Bb5 C5 / G5 D5 Bb5 C5
O refrão é repetido 6x
2x junto com a introdução da guitarra;
2x junto com o solo da pequena bridge;
2x junto com o trecho em palm mute.

Ooh, once upon a time I could control myself, yeah...
Once upon a time I could lose myself, yeah, yeah, yeah...
Once, upon a time I could love myself, yeah...
Once upon a time I could love you, yeah, yeah, yeah...

Once (4x)
Yeah...once, once...yeah, yeah...
Yeah...yeah, yeah...yeah, yeah...oww...

ACORDES PARA GUITARRA

PIANO UKELELE


COMENTARIOS

Aún no hay comentarios,

¡escribe el primero!

Escribe una pregunta, duda o comentario sobre esta canción, te responderemos a la brevedad.

Las más tocadas de Pearl Jam

Toca una Canción al Azar de Pearl Jam