Education
Pearl Jam
Acordes

Subida por miguel


Más Versiones
Ver. 2 Ver. 3 Ver. 4 Ver. 5 Ver. 6

Cambiar Cifrado
Americano Latino

Cambiar Tonalidad
-1 +1

Partir Pantalla Imprimir FAQ

+A
-A
-|----------------------------------------------------------------------------
-|-----0------1-1---1---------------1-1-1-----------1-1--1-------------3--3---
-|-----0----0h2-2---2p0------0---0-h2-2-2------0--0h2-2--2--0----0----h2--2---
-|--2--0----0h2-2---2p0---2--0---0-h2-2-2---2--0--0h2-2--2--0--2-0--0-h2--2---
-|--2---------------------2-----------------2------------------2--------------
-|----------------------------------------------------------------------------
Rhythm Figure 1

-|-----------------------------|------------------|---------------------------
-|-3--3/5--0-------------------|------------------|---------------------------
-|-2---------------------------|------------------|---------------------------
-|-2---------------------------|------------------|---------------------------
-|-----------------------------|----2-------------|---------------------------
-|-----------------------------|----0-------------|---------------------------
end Rhythm Figure 1 G2 during RF 1

-|-----------------------------------------7----------------------------------
-|--3vv------------------------------------8----------------------------------
-|-------2--0---4--------------------------9----------------------------------
-|--------------2--------------------------9----------------------------------
-|--------------------2-------------------(7)---------------------------------
-|-------------------------3---0----------------------------------------------
i am questioning... w/ RF1

-|--0--------------0---------------------0--------0---------------------------
-|--0--------------0---------------------0--------0---------------------------
-|--0--------------6---------------------9--------11--------------------------
-|--2--------------7---------------------10-------12--------------------------
-|--2--------------7---------------------10-------12--------------------------
-|--0-------------------------------------------------------------------------
G1 if i could talk of my beginning would my fears now be inward (?)

-|--7--------------5---------------------8--------10-10-10--10-10-10----------
-|--8--------------5---------------------8--------10-10-10--10-10-10----------
-|--9--------------6---------------------9--------11-11-11--11-11-11----------
-|--9--------------7---------------------10-----------------------------------
-|----------------------------------------------------------------------------
-|----------------------------------------------------------------------------
G2

-|-------------------------------------------8--7-----------------------------
-|---12---12-12----12-12-12-12-----------10--------12-12-12--12-12-12---------
-|---12---12-12----12-12-12-12---x----------------12-12-12--12-12-12---------
-|---9----9--9-----9--9--9--9----x---------------9--9--9---9--9--9----------
-|---------------------------------------------------------------------------
-|----------------------------------------------------------------------------
"Bridge" (1:28; w/ verse chords)

-|-0---------------------------------------------------------------0----------
-|-0---------------------------------------------------------------0----------
-|-0------------------6---------8------------------9--9--9--9--9---0----------
-|-2------------------7---------9------------------10-10-10-10-10--2----------
-|-2------------------7---------9------------------10-10-10-10-10--2----------
-|-0--------------------------------------------------------------------------
i'm questioning a revelation these are the words in the snow.. simple,

-|----------------------------------------10-10-10-10-10-10-10-10-10-10-------
-|----------------------------------------10-10-10-10-10-10-10-10-10-10-------
-|----6----------------------9------------11-11-11-11-11-11-11-11-11-11-------
-|----7----------------------10-----------0--0--0--0--0--0--0--0--0--0--------
-|----7----------------------10-----------------------------------------------
-|----------------------------------------------------------------------------
the truth that becomes you.. i am the seed wondering wwwww--?

Solo:
-|------------------------------------------------------12--------12----------
-|-------------------------15-15---------------------12----15b17-----15-12----
-|------------12-14--14b15-------15r14--12-------14b--------------------------
-|--14vv--/14------------------------------14-14------------------------------
-|----------------------------------------------------------------------------
-|----------------------------------------------------------------------------


-|----------------------------------------------------------------------------
-|----12----12-15---12----12----12--15--12----12------------------------------
-|-14----14------------14----14------------14----14-14p12--14p12--------------
-|---------------------------------------------------------------14--12v------
-|----------------------------------------------------------------------------
-|----------------------------------------------------------------------------


-|--15--15----------------------------------12--15--12--14--15-14--15-14-15---
-|--x---x--------------------------15b17vv------------------------------------
-|--12--12--12/14--14--14--14--12---------------------------------------------
-|----------------------------------------------------------------------------
-|----------------------------------------------------------------------------
-|----------------------------------------------------------------------------


-|-14b15r14-----------------------------17--19-17-19p17-----------------------
-|-----------15-15/17--17p15h17--17--20-----------------20-17--15-12----------
-|----------------------------------------------------------------------------
-|----------------------------------------------------------------------------
-|----------------------------------------------------------------------------
-|----------------------------------------------------------------------------


-|----------------------------------------------------------------------------
-|----------------------------------------------------------------------------
-|-14b15r14p12----------------------------------------------------------------
-|----------------------------------------------------------------------------
-|----------------------------------------------------------------------------
-|----------------------------------------------------------------------------

ACORDES PARA GUITARRA

PIANO UKELELE


COMENTARIOS

Aún no hay comentarios,

¡escribe el primero!

Escribe una pregunta, duda o comentario sobre esta canción, te responderemos a la brevedad.

Las más tocadas de Pearl Jam

Toca una Canción al Azar de Pearl Jam