All Or None
Pearl Jam
Acordes

Subida por Abelio
Álbum: Riot Act ( 2002)


Más Versiones
Ver. 2 Ver. 3 Ver. 4 Ver. 5 Ver. 6

Cambiar Cifrado
Americano Latino

Cambiar Tonalidad
-1 +1

Partir Pantalla Imprimir FAQ

+A
-A
tuning (both guitars): Eb Ab Db Gb Bb Eb

intro:
-------------------1--0-------------------------------------------------------
----------1--1--1--3--3-----------1------1--1--1---3--------------------------
-2-----2--2--0--2--2--2---------0-----2--2--0--2---2--------------------------
-2-----0--3--3--3--0--0-----0h2----------3--3--3---0--------------------------
-0--------3--3--3---------0--------------3--3--3------------------------------
---3-2-2----------------------------2-----------------------------------------


verse:
------------------------1--0--------------------------------------------------
-1--1--1--1---1--1--1---3--3--------------------------------------------------
-2--0--2--2---2--0--2---2--2--------------------------------------------------
-2--2--2--0---3--3--3---0--0--------------------------------------------------
-0--0--0------3--3--3---------------------------------------------------------
----------2-------------------------------------------------------------------


chorus:
----------------------------------5------------------1--0---------------------
-----------3-----------3-----------5--------1--1--1--3--3---------------------
---------2---2-------2---2----------5-------2--0--2--2--2---------------------
-------3-------3---3-------3---------7------3--3--3--0--0---------------------
--------------------------------------7-----3--3--3---------------------------
--2--3-----------3---------------------5--------------------------------------
2x

solo 1:
-----------------------------------------8----8-------------------------------
--5--------------------6-5--5-6-5-6-8br6---8b---8b-6-5-6-6-6p5----------------
----7p5---5---5--7h5-------------------------------------------7-5------------
--------7------------7--------------------------------------------------------
------------------------------------------------------------------------------
------------------------------------------------------------------------------


---------------------8-10p8----10-8-10b-10-8h10p8-----------------------------
-----------10br-8-10--------10--------------------10-8vv5-5-6p5-6p5----------
------5-7------------------------------------------------------------7-5------
--5h7-------------------------------------------------------------------------
------------------------------------------------------------------------------
------------------------------------------------------------------------------


------------------------------------------------------------------------------
----------------5-6-8-6-5-3vv-------------------------------------------------
----5---5---5-----------------------------------------------------------------
--7---7---7---7---------------------------------------------------------------
------------------------------------------------------------------------------
------------------------------------------------------------------------------


solo 2:
--5vvv-5----------------------------------------------------5-----5--8b-------
---------8-5---5-------5----------------------------------5---8b--8b----------
-------------7-----5-7---7-5---5-9p7-5h7p5---5-------5-7b---------------------
-----------------7-----------7-----------------7-5h7--------------------------
------------------------------------------------------------------------------
------------------------------------------------------------------------------


--8b-8b-8b---------5----------------------------------------------------15----
-----8b-8b--8-10v----8-5---5---------------5----------------------------------
-------------------------7-----5-7p5---5-7---7p5v-7br-5h7p5---/17-17-17-------
-----------------------------7-------7----------------------------------------
------------------------------------------------------------------------------
------------------------------------------------------------------------------


----13--12-13-12--------------------------------------------------------------
-----------------15-13--------------------------------------------------------
-17---------------------------------------------------------------------------
------------------------------------------------------------------------------
------------------------------------------------------------------------------
------------------------------------------------------------------------------
repeat & fade ////////////////// ¿Te Animas? Sube una canción a este sitio. //////////////////

ACORDES PARA GUITARRA

PIANO UKELELE


COMENTARIOS

Aún no hay comentarios,

¡escribe el primero!

Escribe una pregunta, duda o comentario sobre esta canción, te responderemos a la brevedad.

Las más tocadas de Pearl Jam

Toca una Canción al Azar de Pearl Jam