Low Light
Pearl Jam
Acordes

Subida por Moiseshurtado
Álbum: Yield ( 1998)


Más Versiones
Ver. 2 Ver. 3
+A
-A
   G         (C  B  Em)
E:-3---------3---3---3--------
B:-3---------3---3---3--------
G:-0---------0---0---0--------
D:-0---------2---0---0--------
A:-2---------3*--2*--0--------
E:-3-----------------0*-------

Chords:

G: (320033)
C: (X32033)
B: (X20033)
Em:(022000) D: (X00232)
A: (X02233)
Intro:

G (C B Em)

Em C G (C B Em)
Clouds roll by
G (C B Em)
Healing is what they say
G (C B Em)
Or is just my way
Em C G
Wind blows by
D C
Low...light
D C
Side...tracked
D C
Low...light
C B A C B D
Can't see my tracks, yours sit way back

G (C B Em)
Can't be here all alone
G (C B Em)
Clear a path to my home
Em C G (C B Em)
Blood runs dry

G (C B Em)
Books and jealousy, tell me why
G (C B Em)
I will feel calm
Em C G
Voice blows by
D C
Low...light
D C
Car...crash
D Em
Low...light
C B A C B D
They wear my mask, your first, my last

da para fazer assim o solo do piano

G (C B Em)
E:------------------------------------------
B:------------------------------------------
G:-4h5-4----------4h5-4-------/9--7--4-----
D:-------5-4-5-----------5-4----------------
A:------------------------------------------
E:------------------------------------------
G (C B Em)
E:------------------------------------------
B:------------------------------------------
G:-4h5-4----------4h5-4-------/9--7--4-----
D:-------5-4-5-----------5-4----------------
A:------------------------------------------
E:------------------------------------------
E C G (B C B) G
E:------------------------------------------
B:/8---8p7----------------------------------
G:---------9--7-9-7---/4-/5-4--0------------
D:------------------------------------------
A:------------------------------------------
E:------------------------------------------

Em C G (C B Em)
Voice goes by
G (C B Em)
Two birds is what they'll see
G (C B Em)
Getting lost upon their way
Em C G
Wind rolls by
D C
Low...light
D C
I ... sigh
D Em C B
Low...light

D Em
I need the light
C B A C B A
I'll find my way from wrong, what's real?
C B D
The dream I see

ACORDES PARA GUITARRA

PIANO UKELELE


COMENTARIOS

Aún no hay comentarios,

¡escribe el primero!

Escribe una pregunta, duda o comentario sobre esta canción, te responderemos a la brevedad.

Las más tocadas de Pearl Jam

Toca una Canción al Azar de Pearl Jam