Alone (Acordes)

Pearl Jam

Subida por Acustico

Compartir


Imprimir FAQ
+A
-A

Texto

Desplazamiento

Transportador

Color de Fondo

Archivos

-A
+A
TAB by Brian Broskie

Not sure if it is 100% correct, but I know most of it is.

It's in the key of E

Intro: 
        Em       G          Am      C 
e---------------------------------------------
b---0-0-0-0-0--3---3-3---1--1-1-1---1---------     
g---0-0-0-0-0--0---0-0---2--2-2-2---0---------
d---2-2-2-2-2--0---0-0---2--2-2-2---2---------
a---2-2-2-2-2--2---2-2---0--0-0-0---3---------
e---0-0-0-0-0--3---3-3------------------------


Main Riff: 

e------------------------------------
b------------------------------------
g-------------------------------7-9--
d------------5-7------7-5---7-9------
a--------7-5------7-5-----7----------
e--12------------------------------

Main Riff : 

e------------------------------------
b------------------------------------
g------------------------------------
d------------5-7------7-7-7-7-5------
a--------7-5------7-5-----------7-5--
e-----0------------------------------

Bridge:

e------------------------------------
b------------------------------------
g--------9-9---7-9-----7-9---9-12-11-
d--------9-9---7-9-----7-9---9-12-11-
a--------7-7---5-7-----5-7---7-10--9-
e---12------0-----0-0-----0---------

 
Song Layout:

intro: 1x
Intro A: 4x
Main Riff A: 3x
Main Riff B: 1x
Main Riff A: 7x
Main Riff B: 1x
Intro A: 4x
Main Riff A: 7x
Main Riff B: 1x
Bridge: 4x
Bridge with guitar solo: 8x (not sure about the rythm at this part,
                            but it is using the same chords that are
                            used in the Bridge rythm fig.)   
Intro A: 4x

Video Clip de Alone


ACORDES PARA GUITARRA

PIANO UKELELE


TOP 20: Las más tocadas de Pearl Jam


Toca una Canción al Azar de Pearl Jam

Acordes

Cerrar

04.19

x

149