Animal
Pearl Jam
Acordes

Subida por manitas
Álbum: Vs. ( 1993)


Más Versiones
Ver. 2 Ver. 3 Ver. 4 Ver. 5 Ver. 6
+A
-A
Transcribed by: Evan Cowan and Chris Wilson (Last 7 lines of Solo)


Special thanks to Ryan Benjamin for Mike's lightening run in the solo.
(08/19/99)

-|---------------------------|---------------------------|--------------------
-|---------------------------|---------------------------|--------------------
-|---------------------------|---------------------------|--------------------
-|-------------------7-------|-------------------7-------|--------------------
-|-0--0-0-0--0--0-0----6-5p0-|-0--0-0-0--0--0-0----6-5p0-|--------------------
-|-5--5-5-5--5--5-5----------|-5--5-5-5--5--5-5----------|--------------------
G1 4x 1 2 3 4 5 against one
-|---------------------------|---------------------------|--------------------
-|---------------------------|---------------------------|--------------------
-|---------------------------|---------------------------|--------------------
-|-------------------7-------|-------------------7-------|--------------------
-|-0--0-x-x--0-x-x-x---6-5p0-|-0--0-x-x--0-x-x-x---6-5p0-|--------------------
-|-5--5-x-x--5-x-x-x---------|-5--5-x-x--5-x-x-x---------|--------------------
G2 4x
-|--------------------------|--------------------------|--------------------|-
-|--------------------------|--------------------------|--------------------|-
-|--------------------------|--------------------------|--------------------|-
-|------------------7-------|------------------7-------|--------------------|-
-|-0--0-0-0--0--0-0---6-5p0-|-0--0-0-0--0--0-0---6-5p0-|-0--0-0-0-6p5p0---5-|-
-|-5--5-5-5--5--5-5---------|-5--5-5-5--5--5-5---------|-5--5-5-5------5h7--|-
G1 5 5 5 against one said 1 2 3 4 5 against one 5 5 5 5 against

-|--------------------------|--------------------------|--------------------|-
-|--------------------------|--------------------------|--------------------|-
-|--------------------------|--------------------------|--------------------|-
-|------------------7-------|------------------7-------|--------------------|-
-|-0--0-x-x--0-x-x-x--6-5p0-|-0--0-x-x--0-x-x-x--6-5p0-|-0--0-x-0-6p5p0---5-|-
-|-5--5-x-x--5-x-x-x--------|-5--5-x-x--5-x-x-x--------|-5--5-x-5------5h7--|-
G2

Verse:
-|---------------------------------------------|---------------------------|--
-|-7--7-7-------------x-7--7-7-----------------|---------------------------|--
-|-7--7-7-------------x-7--7-7-----------------|---------------------------|--
-|-7--7-7-------------x-7--7-7---------7-------|-------------------7-------|--
-|-5--5-5-------------x-5--5-5-----------6-5p0-|-0--0-0-0--0--0-0----6-5p0-|--
-|---------------------------------------------|-5--5-5-5--5--5-5----------|--
G1 Torture from you to me yeah

-|---------------------------------------------|---------------------------|--
-|-7--7-7-------------x-7--7-------------------|---------------------------|--
-|-7--7-7-------------x-7--7-------------------|---------------------------|--
-|-7--7-7-------------x-7--7--3^-4^-5^-7-------|-------------------7-------|--
-|-5--5-5-------------x-5--5-------------6-5p0-|-0--0-x-x--0-x-x-x---6-5p0-|--
-|---------------------------------------------|-5--5-x-x--5-x-x-x---------|--
G2

-|-------------------------|---------------------------------------|----------
-|-------------------------|-7--7-7--------x-7--7-7----------------|----------
-|-------------------------|-7--7-7--------x-7--7-7----------------|----------
-|-------------------------|-7--7-7--------x-7--7-7--------7-------|----------
-|---0--0-0-0--6p5p0-----5-|-5--5-5--------x-5--5-5----------6-5p0-|----------
-|---5--5-5-5--------5h7---|---------------------------------------|----------
G1+G2 Ahh Abducted from the street

-|-----------------------|-----------------------|----------------------------
-|-----------------------|-----------------------|----------------------------
-|-----------------------|-----------------------|----------------------------
-|---------------7-------|---------------7-------|----------------------------
-|-0--0-0--0--0----6-5p0-|-0--0-0--0--0----6-5p0-|----------------------------
-|-5--5-5--5--5----------|-5--5-5--5--5----------|----------------------------
G1 yeah

-|-----------------------|-----------------------|----------------------------
-|-----------------------|-----------------------|----------------------------
-|-----------------------|-----------------------|----------------------------
-|-----------------------|-----------------------|----------------------------
-|-0----0--0----------0--|--0---------0----------|----------------------------
-|-5--x-5--5--x-x-x-x-5--|--5-x-x-x-x-5--x-x-x-x-|----------------------------
G2

-|-----------------------|-----------------------|----------------------------
-|-----------------------|-----------------------|----------------------------
-|-----------------------|-----------------------|----------------------------
-|---------------7-------|-----------------------|----------------------------
-|-0--0-0--0--0----6-5p0-|-0--0-0--0-------------|----------------------------
-|-5--5-5--5--5----------|-5--5-5--5-------------|----------------------------
G1

-|-----------------------|-----------------------|----------------------------
-|-----------------------|-----------------------|----------------------------
-|-----------------------|-----------------------|----------------------------
-|-----------------------|-----------------------|----------------------------
-|--0---------0----------|--0---------0--0-------|----------------------------
-|--5-x-x-x-x-5--x-x-x-x-|--5-x-x-x-x-5--5-x-x-x-|----------------------------
G2

Chorus:
-|--17--17-x-17--x-x-x-x-x-|--17--17-x-17--x-x-x-17-17-|----------------------
-|---x---x-x--x--x-x-x-x-x-|---x---x-x--x--x-x-x--x--x-|----------------------
-|--14--14-x-14------------|--14--14-x-14--------14-14-|----------------------
-|-------------------------|---------------------------|----------------------
-|-------------------------|---------------------------|----------------------
-|-------------------------|---------------------------|----------------------
G1 I'd rather be I'd rather be with

-|-------------------------|---------------------------|----------------------
-|-------------------------|---------------------------|----------------------
-|-------------------------|---------------------------|----------------------
-|-------------------------|---------------------------|----------------------
-|-x-x-x-x-x-x-x-x-x-x-x-x-|-x-x-x-x-x-x-x-x-x-x-x-x-x-|----------------------
-|-x-x-x-x-x-x-x-x-x-x-x-x-|-x-x-x-x-x-x-x-x-x-x-x-x-x-|----------------------
G2 (not exact number of strums - just strum muted strings for the whole bar)

-|--17--17-x-17--x-x-x-x-x-|--17--17-x-17--x-x-x-x-x-|------------------------
-|---x---x-x--x--x-x-x-x-x-|---x---x-x--x--x-x-x-x-x-|------------------------
-|--14--14-x-14------------|--14--14-x-14------------|------------------------
-|-------------------------|-------------------------|------------------------
-|-------------------------|-------------------------|------------------------
-|-------------------------|-------------------------|------------------------
G1 I'd rather be with an animal

-|-------------------------|-------------------------|------------------------
-|-------------------------|-------------------------|------------------------
-|-------------------------|-------------------------|------------------------
-|-------------------------|-----------------7-------|------------------------
-|-x-x-x-x-x-x-x-x-x-x-x-x-|-x-x-x-x-x-x-0-0---6-5p0-|------------------------
-|-x-x-x-x-x-x-x-x-x-x-x-x-|-x-x-x-x-x-x-5-5---------|------------------------
G2

-|-5--------------------|--8------------------|-------------------------------
-|-5--------------------|--8------------------|-------------------------------
-|-6--------------------|--9------------------|-------------------------------
-|-7--------------------|-10------------------|-------------------------------
-|-7--------------------|-10------------------|-------------------------------
-|-5--------------------|--8------------------|-------------------------------
G1

-|----------------------|---------------------|-------------------------------
-|----------------------|---------------------|-------------------------------
-|----------------------|---------------------|-------------------------------
-|--------------7-------|-------------7-------|-------------------------------
-|-0--0-0-0--0----6-5p0-|-0--0--0--0----6-5p0-|-------------------------------
-|-5--5-5-5--5----------|-5--5--5--5----------|-------------------------------
G2

-|-10------------------|-3----3----3---------|--------------------------------
-|-10------------------|-3----3----3---------|--------------------------------
-|-11------------------|-4----4----4---------|--------------------------------
-|-12------------------|-5----5----5---------|--------------------------------
-|-12------------------|-5----5----5---------|--------------------------------
-|-10------------------|-3----3----3---------|--------------------------------
G1

-|---------------------|---------------------|--------------------------------
-|---------------------|---------------------|--------------------------------
-|---------------------|---------------------|--------------------------------
-|-------------7-------|-------------7-------|--------------------------------
-|-0--0--0--0----6-5p0-|-0--0--0--0----6-5p0-|--------------------------------
-|-5--5--5--5----------|-5--5--5--5----------|--------------------------------
G2

-|-----------------------|---------------------|------------------------------
-|-----------------------|-----------10-10-98|------------------------------
-|-----------------------|---------------------|------------------------------
-|-7---------------------|---------------------|------------------------------
-|-7---------------------|---------------------|------------------------------
-|-5---------------------|---------------------|------------------------------
G1

-|-----------------------|---------------------|------------------------------
-|-----------------------|---------------------|------------------------------
-|-----------------------|---------------------|------------------------------
-|---------------7-------|-------------7-------|------------------------------
-|-0--0--x-0--0----6-5p0-|-0--0--0--0----6-5p0-|------------------------------
-|-5--5--x-5--5----------|-5--5--5--5----------|------------------------------
G2

-|---------------------------|-------------------------|----------------------
-|---------------------------|-------------------------|----------------------
-|---------------------------|-------------------------|----------------------
-|-----------------7---------|-------------------------|----------------------
-|-0---0---0---0------6--5p0-|-0---0---0---6p5p0-----5-|----------------------
-|-5---5---5---5-------------|-5---5---5---------5h7---|----------------------
G1

-|---------------------------|-------------------------|----------------------
-|5vv-5vv-5vv-5vv-10-10-98|5vv-5vv-53-------------|----------------------
-|---------------------------|-------------------------|----------------------
-|---------------------------|-------------------------|----------------------
-|---------------------------|-------------6p5p0-----5-|----------------------
-|---------------------------|-------------------5h7---|----------------------
G2

Verse:
-|----------------------------------------------|-----------------------|-----
-|-7--7-7-7------------x-7--7-7--7--------------|-----------------------|-----
-|-7--7-7-7------------x-7--7-7--7--------------|-----------------------|-----
-|-7--7-7-7------------x-7--7-7--7------7-------|---------------7-------|-----
-|-5--5-5-5------------x-5--5-5--5--------6-5p0-|-0--0--0-0--0----6-5p0-|-----
-|----------------------------------------------|-5--5--5-5--5----------|-----
G1+G2 Why would you want to hurt me? woh

-|----------------------|-----------------------------------------|-----------
-|----------------------|-7--7-7-------------x-7--7-7-------------|-----------
-|----------------------|-7--7-7-------------x-7--7-7-------------|-----------
-|----------------------|-7--7-7-------------x-7--7-7-----7-------|-----------
-|-0--0--0--6p5p0-----0-|-5--5-5-------------x-5--5-5-------6-5p0-|-----------
-|-5--5--5--------5h7---|-----------------------------------------|-----------
G1+G2 Oh So frightened of your pain

-|---------------------------|---------------------------|--------------------
-|---------------------------|---------------------------|--------------------
-|---------------------------|---------------------------|--------------------
-|-------------------7-------|-------------------7-------|--------------------
-|-0---0---0-7---0-----6-5p0-|-0---0---0-0---0-----6-5p0-|--------------------
-|-5---5---5-5---5-----------|-5---5---5-5---5-----------|--------------------
G1

-|---------------------------|---------------------------|--------------------
-|---------------------------|---------------------------|--------------------
-|---------------------------|---------------------------|--------------------
-|---------------------------|---------------------------|--------------------
-|---------------------------|---0-----------------------|--------------------
-|-5-5-x-x-x-x-5-5-x-x-x-x---|-5-5---5---5-------5-5-5-5-|--------------------
G2

-|---------------------------|-------------------------|----------------------
-|---------------------------|-----------------x-x-x-x-|----------------------
-|---------------------------|-----------------x-x-x-x-|----------------------
-|-------------------7-------|-------------------------|----------------------
-|-0---0---0-0---0-----6-5p0-|-0---0---0-0-------------|----------------------
-|-5---5---5-5---5-----------|-5---5---5-5-------------|----------------------
G1

-|---------------------------|-------------------------|----------------------
-|---------------------------|-------------------------|----------------------
-|---------------------------|-------------------------|----------------------
-|---------------------------|-------------------------|----------------------
-|-----------0----0----------|-0-0---------0-0---------|----------------------
-|-5--5---5--5--x-5--5--5----|-5-5-x-x-x-x-5-5-x-x-x-x-|----------------------
G2

Chorus:
-|--17----------------------|--17----------------------|----------------------
-|---x----------x-x-x-x-x-x-|---x----------x-x-x-x-x-x-|----------------------
-|--14--14--14--x-x-x-x-x-x-|--14--14--14--x-x-x-x-x-x-|----------------------
-|--------------------------|--------------------------|----------------------
-|--------------------------|--------------------------|----------------------
-|--------------------------|--------------------------|----------------------
G1 I'd rather be I'd rather be with

-|--------------------------|--------------------------|----------------------
-|--------------------------|--------------------------|----------------------
-|--------------------------|--------------------------|----------------------
-|-x-x-x-x-x-x-x-x-x-x-x-x-x|-x-x-x-x-x-x-x-x-x-x-x-x-x|----------------------
-|-x-x-x-x-x-x-x-x-x-x-x-x-x|-x-x-x-x-x-x-x-x-x-x-x-x-x|----------------------
-|--------------------------|--------------------------|----------------------
G2

-|--17-----------------------|--17------17--------------|---------------------
-|---x----------x-x-x----x-x-|---x-------x--x-x-x-x-x-x-|---------------------
-|--14--14--14--x-x-x-14-x-x-|--14--14--14--x-x-x-x-x-x-|---------------------
-|---------------------------|--------------------------|---------------------
-|---------------------------|--------------------------|---------------------
-|---------------------------|--------------------------|---------------------
G1 I'd rather be with an animal

-|---------------------------|--------------------------|---------------------
-|---------------------------|--------------------------|---------------------
-|---------------------------|--------------------------|---------------------
-|-x-x-x-x-x-x-x-x-x-x-x-x-x-|-x-x-x-x-x-x-x-x-x-x-x-x-x|---------------------
-|-x-x-x-x-x-x-x-x-x-x-x-x-x-|-x-x-x-x-x-x-x-x-x-x-x-x-x|---------------------
-|---------------------------|--------------------------|---------------------
G2

-|------17--------------------|--17------------------------|------------------
-|-------x--x-x-x-x-x-x-x-x-x-|---x----------x-x-x-x-17-17-|------------------
-|--14--14--x-x-x-x-x-x-x-x-x-|--14--14--14--x-x-x-x-14-14-|------------------
-|----------------------------|----------------------------|------------------
-|----------------------------|----------------------------|------------------
-|----------------------------|----------------------------|------------------
G1 I'd rather be I'd rather be

-|----------------------------|----------------------------|------------------
-|----------------------------|----------------------------|------------------
-|----------------------------|----------------------------|------------------
-|-x-x-x-x-x-x-x-x-x-x-x-x-x-x|-x-x-x-x-x-x-x-x-x-x-x-x-x-x|------------------
-|-x-x-x-x-x-x-x-x-x-x-x-x-x-x|-x-x-x-x-x-x-x-x-x-x-x-x-x-x|------------------
-|----------------------------|----------------------------|------------------
G2

-|--17--17--17--------------|--17--17--17----------17-17-|--------------------
-|---x---x---x--x-x-x-x-x-x-|---x---x---x--x-x-x-x-------|--------------------
-|--14--14--14--x-x-x-x-x-x-|--14--14--14--x-x-x-x-------|--------------------
-|--------------------------|----------------------------|--------------------
-|--------------------------|----------------------------|--------------------
-|--------------------------|----------------------------|--------------------
G1 I'd rather be with an animal

-|--------------------------|----------------------------|--------------------
-|--------------------------|----------------------------|--------------------
-|--------------------------|----------------------------|--------------------
-|-x-x-x-x-x-x-x-x-x-x-x-x-x|-x-x-x-x-x-x-x-x-x-x-x-x-x-x|--------------------
-|-x-x-x-x-x-x-x-x-x-x-x-x-x|-x-x-x-x-x-x-x-x-x-x-x-x-x-x|--------------------
-|--------------------------|----------------------------|--------------------
G2

Solo:
-|------------17-------20b22-20vvvv-20-17-|-----------------------------------
-|-20b22vvvv-----20-17--------------------|-----------------------------------
-|----------------------------------------|-----------------------------------
-|----------------------------------------|-----------------------------------
-|----------------------------------------|-----------------------------------
-|----------------------------------------|-----------------------------------
G1

-|----------------------------------------|-----------------------------------
-|----------------------------------------|-----------------------------------
-|----------------------------------------|-----------------------------------
-|---------------------------7------------|-----------------------------------
-|--0------0---0-----0----------6--5-p-0--|-----------------------------------
-|--5------5---5-----5--------------------|-----------------------------------
G2

-|------------17-------20b22-20vvvv-17-------|--------------------------------
-|-20b22vvvv-----20-17-----------------20-17-|--------------------------------
-|-------------------------------------------|--------------------------------
-|-------------------------------------------|--------------------------------
-|-------------------------------------------|--------------------------------
-|-------------------------------------------|--------------------------------
G1 Oh

-|-------------------------------------------|--------------------------------
-|-------------------------------------------|--------------------------------
-|-------------------------------------------|--------------------------------
-|------------------------------7------------|--------------------------------
-|--0-------0---0----0-----0-------6--5-p-0--|--------------------------------
-|--5-------5---5----5-----5-----------------|--------------------------------
G2

-|------------17-------20b22-20vvvv-17-|-------------------------------------
-|-20b22vvvvv----20-17------------------|-------------------------------------
-|--------------------------------------|-------------------------------------
-|--------------------------------------|-------------------------------------
-|--------------------------------------|-------------------------------------
-|--------------------------------------|-------------------------------------
G1

-|--------------------------------------|-------------------------------------
-|--------------------------------------|-------------------------------------
-|--------------------------------------|-------------------------------------
-|------------------------------7-------|-------------------------------------
-|--0--------0------0------0------6-5p0-|-------------------------------------
-|--5--------5------5------5------------|-------------------------------------
G2

-|-----5------------------------------|------------------------------|--------
-|-------5----------------------------|-/8-8-8-8-8-8-8-8-8-8---------|--------
-|-7b9-----7b9r7-5---7---5-------5----|-/9-9-9-9-9-9-9-9-9-9-5---5---|--------
-|-----------------7---7---7-5-7---7--|------------------------7---7-|--------
-|------------------------------------|------------------------------|--------
-|------------------------------------|------------------------------|--------
G1 Hm

-|------------------------------------|------------------------------|--------
-|------------------------------------|------------------------------|--------
-|------------------------------------|------------------------------|--------
-|----------------------------7-------|----------------------7-------|--------
-|--0-------0------0------0-----6-5p0-|--0-----0-----0----0----6-5p0-|--------
-|--5-------5------5------5-----------|--5-----5-----5----5----------|--------
G2

-|------------------------------|---------------------------|-----------------
-|-/8-8-8-8-8-8-8-8-8-8---------|---------------------------|-----------------
-|-/9-9-9-9-9-9-9-9-9-9-5---5---|-------------------------7-|-----------------
-|------------------------7---7-|------------------5h6h7----|-----------------
-|------------------------------|-------3---3-5/7-----------|-----------------
-|------------------------------|---3-5---5-----------------|-----------------
G1

-|------------------------------|---------------------------|-----------------
-|------------------------------|---------------------------|-----------------
-|------------------------------|---------------------------|-----------------
-|----------------------7-------|-------------------7-------|-----------------
-|-0-----0-----0----0-----6-5p0-|-0----0----0----0----6-5p0-|-----------------
-|-5-----5-----5----5-----------|-5----5----5----5----------|-----------------
G2

-|----------------------------------|-----------------------------------------
-|----------------------------------|-----------------------------------------
-|-5b7r5----------------------------|-----------------------------------------
-|-------7-5---5--------------------|-----------------------------------------
-|-----------7---7-6-53-5-3-5b6r5--|-----------------------------------------
-|----------------------------------|-----------------------------------------
G1

-|----------------------------------|-----------------------------------------
-|----------------------------------|-----------------------------------------
-|----------------------------------|-----------------------------------------
-|-------------------------7--------|-----------------------------------------
-|-0-----0-----0-----0-------6-5p0--|-----------------------------------------
-|-5-----5-----5-----5--------------|-----------------------------------------
G2

-|-----------------------------------------------------------------------|----
-|-----------------------------------------------------------------17----|----
-|-----------------------------------------------17----17-19-17-19----19-|----
-|--------------------------17----17-17-19-17-19----19-------------------|----
-|-----15----15-17/19-17-19----19----------------------------------------|----
-|-/17----17-------------------------------------------------------------|----
G1 I'd rather be

-|-----------------------------------------------------------------------|----
-|-----------------------------------------------------------------------|----
-|-----------------------------------------------------------------------|----
-|----------------------------------------------------7------------------|----
-|---0-----------0------------0--------------0------------6---5--p--0----|----
-|---5-----------5------------5--------------5---------------------------|----
G2

-|-------------17----17-20-17----17-20-20b22-20b22---|-----------------------
-|-17-20-17-20----20----------20----------------------|-----------------------
-|----------------------------------------------------|-----------------------
-|----------------------------------------------------|-----------------------
-|----------------------------------------------------|-----------------------
-|----------------------------------------------------|-----------------------
G1 I'd rather be with

-|----------------------------------------------------|-----------------------
-|----------------------------------------------------|-----------------------
-|----------------------------------------------------|-----------------------
-|----------------------------------------7-----------|-----------------------
-|--0----------0---------0--------0----------6--5-p-0-|-----------------------
-|--5----------5---------5--------5-------------------|-----------------------
G2

-|-0--10b12r10-10-8----8-----------------|-------------------------|----------
-|-0----------------10----10----8-10-8---|-8-8-8---8-8-8-10vvvv---|----------
-|----------------------------9--------9-|-------9-----------------|----------
-|---------------------------------------|-------------------------|----------
-|---------------------------------------|-------------------------|----------
-|---------------------------------------|-------------------------|----------
G1 I'd rather be with an animal

-|---------------------------------------|-------------------------|----------
-|---------------------------------------|-------------------------|----------
-|---------------------------------------|-------------------------|----------
-|------------------------------7--------|-----------------7-------|----------
-|--0------0--------0-------0-----6-5p0--|-0---0----0---0----6-5p0-|----------
-|--5------5--------5-------5------------|-5---5----5---5----------|----------
G2

-|------------------------------------|----------------------------------|----
-|--x-17-17----17-17----17------------|--5-5---5-5---5--5----------------|----
-|--x-17-17----17-17----17------------|--5-5---5-5---5--5----------------|----
-|--x-------19-------19-----19-17-----|------7-----7-------7-5-5---------|----
-|--------------------------------19-|----------------------------------|----
-|------------------------------------|----------------------------------|----
G1 I'd rather be I'd rather be

-|------------------------------------|----------------------------------|----
-|------------------------------------|----------------------------------|----
-|------------------------------------|----------------------------------|----
-|---------------------------7--------|------------------------7---------|----
-|--0------0------0------0-----6-5p0--|-0-----0------0-----0-----6-5p0---|----
-|--5------5------5------5------------|-5-----5------5-----5-------------|----
G2

-|----------------5-----------------|-----5----------------------------|------
-|--8b10vvvvvvv-----8-5-----5-------|-------8p5------------------------|------
-|----------------------7b9---7-5-5-|-7b9------7p5--5-----5------------|------
-|----------------------------------|-------------7---7-7---7-5---5----|------
-|----------------------------------|---------------------------7---7--|------
-|----------------------------------|----------------------------------|------
G1 I'd rather be with an animal

-|----------------------------------|----------------------------------|------
-|----------------------------------|----------------------------------|------
-|----------------------------------|----------------------------------|------
-|--------------------------7-------|--------------------------7-------|------
-|--0------0-----0------0-----6-5p0-|--0------0------0-----0-----6-5p0-|------
-|--5------5-----5------5-----------|--5------5------5-----5-----------|------
G2

Outro:
-|-----------------------|-----------------------|-------------------------|--
-|-----------------------|-----------------------|-------------------------|--
-|-----------------------|-----------------------|-------------------------|--
-|-----------------------|-----------------------|-------------------------|--
-|-5h7vvv---------------|-----------------------|-------------------------|--
-|-----------------------|-----------------------|-------------------------|--
G1

-|-----------------------|-----------------------|-------------------------|--
-|-----------------------|-----------------------|-------------------------|--
-|-----------------------|-----------------------|-------------------------|--
-|---------------7-------|-----------------------|-------------------------|--
-|-0---0--0---0----6-5p0-|-0---0--0---0---0-0--0-|-0---0---0---0---0-0-0-0-|--
-|-5---5--5---5----------|-5---5--5---5---5-5--5-|-5---5---5---5---5-5-5-5-|--
G2

-|----------------------|----------------------|---------------------|--------
-|----------------------|----------------------|---------------------|--------
-|----------------------|----------------------|---------------------|--------
-|----------------------|----------------------|---------------------|--------
-|---0---0---0---0-0--0-|--0---0---0---0---0---|-0---0---0---0---0---|--------
-|---5---5---5---5-5--5-|--5---5---5---5---5---|-5---5---5---5---5---|--------
G2 Said 1 2 3 4 5 against 1 5 5 5 5 5against1 said

-|----------------------|----------------------|----------||------------------
-|----------------------|----------------------|----------||------------------
-|----------------------|----------------------|----------||------------------
-|-/7*-------/7*--------|-/7*------------------|-7--------||------------------
-|--/---------/---------|--/-------------------|-0--------||------------------
-|--/---------/---------|--/-------------------|-5--------||------------------
G2 1 2 3 4 5against 1 5 5 5 5 5against 1 said *trem pick

ACORDES PARA GUITARRA

PIANO UKELELE


COMENTARIOS

Aún no hay comentarios,

¡escribe el primero!

Escribe una pregunta, duda o comentario sobre esta canción, te responderemos a la brevedad.

Las más tocadas de Pearl Jam

Toca una Canción al Azar de Pearl Jam