Baba O'Riley (Acordes)

Pearl Jam

Subida por Sandaya

Compartir


Imprimir FAQ
+A
-A

Texto

Desplazamiento

Transportador

Color de Fondo

Archivos

-A
+A
Intro:
e|-------------------------------------------------------
B|-------------------------------------------------------
G|------------9x-9x-------------------9x-9x--------------
D|------9x-9x-------9x-9x-------9x-9x-------9x-9x--------
A|7x-7x-------------------7x-7x-------------------7x-7x--
E|-------------------------------------------------------

E          B      A     E       B      A
Out here in the fields, I fight for my meals
E      B    A         E     B   A 
I get my back into my living
E          B      A     E       B      A
I don't need to fight, to prove I'm right
E       B   A         E    B   A
I don't need to be forgiven
E   B  A 

B     B    B

Don't cry, don't raise your eye
It's only teenage wasteland

E          B     A
Sally, take my hand
E           B       A
Travel South cross land
E                B    A                 E      B   A
Put out the fire and don't look past my shoulder
E          B     A
The Exodus is here
E          B     A 
The happy ones are near
E                B   A                  E   B   A
Let's get together before we get much older

e|--12--12----------12-12-14b16-12-14b16-14b16-12-14-12-----------------------
B|---------12-12h14-------------------------------------14-12-14-12-----------
G|----------------------------------------------------------------------------
D|----------------------------------------------------------------------------
A|----------------------------------------------------------------------------
E|----------------------------------------------------------------------------

E      B        A
Teenage wasteland
E       B       A 
It's only teenage wasteland
E       B       A
Teenage wasteland
E      B        A        
(It's only) teenage wasteland

B  B  A  A  E  E  D  D

Solo

e|--11-12-14-11-12-14-11-12-14----------------------------------------
B|--------------------------------------------------------------------
G|--------------------------------------------------------------------
D|--------------------------------------------------------------------    4x
A|--------------------------------------------------------------------
E|--------------------------------------------------------------------

e|--11-12-11-12-11-12-11-12-11-12-11-12-11----------------------------
B|-----------------------------------------12-------------------------
G|--------------------------------------------------------------------
D|--------------------------------------------------------------------
A|--------------------------------------------------------------------
E|--------------------------------------------------------------------

e|--11-12-11-12-11-12-11-12-11-12-11-12-14----12----------------------
B|-----------------------------------------12-------------------------
G|--------------------------------------------------------------------
D|--------------------------------------------------------------------
A|--------------------------------------------------------------------

Video Clip de Baba O'Riley


ACORDES PARA GUITARRA

PIANO UKELELE
E
B
A
D


TOP 20: Las más tocadas de Pearl Jam


Toca una Canción al Azar de Pearl Jam

Acordes

Cerrar
E
B
A
D

23.38

x

217