Better Man
Pearl Jam
Acordes

Subida por Pabon
Álbum: Vitalogy ( 1994)


Más Versiones
Ver. 2 Ver. 3 Ver. 4 Ver. 5 Ver. 6
+A
-A
Intro:
D/F#           E7/G#
E|-----------------------------------------
B|--3--0-------3--0--------5--0---------5--
G|--2----2-----2----2------4----4-----4---4
D|--0----------0-----------0---------------
A|-----------------------------------------
E|2--------0-2--------0--4--------0-4------

E|0----------------------------------------
B|--5---4----------------------------------
G|----4------------------------------------ (2x)
D|-----------------------------------------
A|-----------------------------------------
E|-----------------------------------------  

D/F# E7/G#
Waiting, watching the clock, it's four o'clock
D/F#
It's got stop
E7/G#
Tell him, take no more she practices her speech
F6/A G/B
As he opens the door, she rolls over
F6/A G/B
Pretends to sleep as he looks her over

D A G5 D
She lies and says she's in love with him
A G5
Can't find a better man
D A G5 D
She dreams in colour she dreams in red
A A4 A A4 A
Can't find a better man
D D4 D D4 D
Can't find a better man
A A4 A A4 A G5
Can't find a better man Ohh....

D/F# E7/G#
Talking to herself there's no one else who needs to
D/F# E7/G#
Know, She Tells herself, ohh...

D/F# E7/G#
Memories, back when she was bold and strong

And waiting for
F6/A G/B F6/A
The world to come along, swears she knew it now she
G/B
Swears he's gone

D A G5 D
She lies and says she's in love with him
A G5
Can't find a better man
D A G5 D
She dreams in colour she dreams in red

D G5
Can't find a better man

D A G5 D
She lies and says she's in love with him
A G5
Can't find a better man
D A G5 D
She dreams in colour she dreams in red
A A4 A A4 A
Can't find a better man

D D4 D D4 D
Can't find a better man
A A4 A A4 A G5
Can't find a better man Ohh....

D A G5
She loved him, yeah...
D A G5
She don't want to leave this way
D A G5
She feeds him, yeah...
D A G5
That's why she'll be back again
D A G5
Can't find a better man
D A G5
Can't find a better man

Estrofe:
D/F# E7/G#
E|-----------------------------------------
B|--3--0-------3-0--------5-0------5-0-----
G|--2----2-----2---2------4---4----4---4--- (2x)
D|--0----------0----------0--------0-------
A|-----------------------------------------
E|2--------0-2-------0--4------0-4-------4-

F6/A G/B F6/A G/B
E|-----------------------------------------
B|--6-6---6----8-8---8----6-6---6---8-8--8-
G|--5---5------7---7------5---5-----7---7--
D|--0----------0----------0---------0------
A|-----------------------------------------
E|5----------7----------5---------7-------7

ACORDES PARA GUITARRA

PIANO UKELELE
D/F#
E7/G#
F6/A
G/B
D
A
G5
A4
D4


COMENTARIOS

Aún no hay comentarios,

¡escribe el primero!

Escribe una pregunta, duda o comentario sobre esta canción, te responderemos a la brevedad.

Las más tocadas de Pearl Jam

Toca una Canción al Azar de Pearl Jam
D/F#
E7/G#
F6/A
G/B
D
A
G5
A4
D4