Black
Pearl Jam
Acordes

Subida por cantaor
Álbum: Ten ( 1991)


Más Versiones
Ver. 2 Ver. 3 Ver. 4 Ver. 5 Ver. 6
+A
-A
[Intro] E  A5(9)
E A5(9)
E A5(9) E

E A5(9)
E|------------------7----------------------|
B|----9---x-9-9-----10--10-7-7-7---7-7-----|
G|----9---x-9-9-9-9-9---9--9-9-7---7-7-----|
D|----9---x-9-9-9-9-7---7--7-7-7-9---------|
A|-7--7---------7-7-0------------0---------|
E|-0---------------------------------------|
? ? ? ? ? ? ? ? ? ? ? ? ? ? ?

E A5(9)
E|------------------7---9------------------|
B|----9-------------10--10--10-10-7-7-7----|
G|----9---7----7-x--9---9---9--9--9-9-7----|
D|-9--9---7----7-x--7---7---7--7--7-7-7-9--|
A|-7------7----7-x--0---0---0--0--0-0-0-0--|
E|-0---------------------------------------|
? ? ? ? ? ? ? ? ? ? ? ? ? ?

E A5(9)
E|----------------------9------------------|
B|-------------9-9-9-9--10--10---10-10-7---|
G|-9-----------9-9-9-9--9---9----9--9--7---|
D|-9-----------9-9-9-9--7---7----7--7--7-9-|
A|-7--------------------0---0----0--0--0---|
E|-0---------------------------------------|
? ? ? ? ? ? ? ? ? ? ?

E
E|-----------------------------------------|
B|----9-----------------9-9-9--------------|
G|----9-----------------9-9-9--------------|
D|-9--9-----------------9-9-9--------------|
A|-7--------------------7-7-7--------------|
E|-0---------------------------------------|
? ? ? ? ?

[Primeira Parte]
(Guitarra 2 - Primeira Estrofe)

E A5(9)
E|---------------------------------------------------|
B|---------------------------------------------------|
G|---------------------------------------------------|
D|-----------------7~--------------------------------|
A|-9h11~-----------0---------------------------------|
E|-0-------------------------------------------------|

E A5(9)
E|---------------------------------------------------|
B|---------------------------------------------------|
G|---------------------------------------------------|
D|-----------------2---------------------------------|
A|-9h11~----9--11--0---------------------------------|
E|-0--------0----------------------------------------|

E A5(9)
E|---------------------------------------------------|
B|---------------------------------------------------|
G|-----------------------9h11--9---------------------|
D|-------------------7~------------11-9--------------|
A|-9h11~-------9h11----------------------------------|
E|-0---------0---------------------------------------|

E
E|--------------------12~----------------------------|
B|--------------------12~----------------------------|
G|---------------------------------------------------|
D|---------------------------------------------------|
A|-9h11~---------------------------------------------|
E|-0-------------------------------------------------|

E A5(9)
Sheets of empty canvas
E A5(9)
Untouched sheets of clay
E A5(9)
Were laid spread out before me
E
As her body once did

[Guitarra 2 - Segunda Estrofe]

E A5(9)
E|---------------------------------------------------|
B|-------------------------------10~-----------------|
G|-------------9---------9-------9-~----9h11--9------|
D|--------9----9----9----9----7---------9-------11-9-|
A|--------9h11------9h11---9--0----------------------|
E|--0-----------------------------------------------|

E A5(9)
E|--------14--12--9----------------------------------|
B|--------14--12--9--12~-9---------------------------|
G|-------------------11~-9--------------9h11--9------|
D|--------------------------11--9h11~---9-------11-9-|
A|-9h11~------------------------0--------------------|
E|-0-------------------------------------------------|

E A5(9)
E|---------------------------------------------------|
B|-------------------------------10~-----10----------|
G|-------------9------9----------9-~---------9-------|
D|--------9----9------9-------7-----------------7----|
A|-9h11~--9h11---9h11---9h11--0----------------------|
E|-0-------------------------------------------------|

E
E|-------12~-12-9------------------12~-12-9----------|
B|-------12~------12-9-------------12~------12-9-----|
G|---------------------11-9~---------------------11-9|
D|---------------------------------------------------|
A|9h11-----------------------9h11~-------------------|
E|0----0---------------------0-----------------------|

A5(9)
All five horizons
E A5(9)
Revolved around her soul

As the Earth to the Sun
E A5(9)
Now the air I tasted and breathed
E
Has taken a turn

[Pré-Refrão]

(Guitarra 2)
C
E|-----------------------------------------|
B|------8---8------8--8--8--8--------------|
G|------9---9-h10--10-10-10-9--------------|
D|-10---10--10-----10-10-10-10-------------|
A|-10---10--10-----10-10-10-10-------------|
E|-----------------------------------------|

E|---------10p8----8-----------------------|
B|------8-------10---8---------------------|
G|------9--------------9~------------------|
D|-10--10----------------------------------|
A|-10--10----------------------------------|
E|-----------------------------------------|

C
E|-----------------------------------------|
B|------8---8------8--8--8--8--------------|
G|------9---9-h10--10-10-10-9--------------|
D|-10---10--10-----10-10-10-10-------------|
A|-10---10--10-----10-10-10-10-------------|
E|-----------------------------------------|

Em
E|-----------------------------------------|
B|------8---8------8--8--8--8--------------|
G|------9---9-h10--10-10-10-9---9----------|
D|-10--10--10------10-10-10-10--9----------|
A|-10--10--10------10-10-10-10--7----------|
E|------------------------------0----------|

C Em
Oh, and all I taught that was everything
C Em
Oh, I know she gave me all that she wore

(Passagem - Guitarra 1)
E|------------------0----------------------|
B|------------------0----------------------|
G|-----0-2p0--------0----------------------|
D|-0-2--------------2----------------------|
A|------------------2----------------------|
E|-----------3b-0---0----------------------|

[Primeiro Refrão]

(Guitarra 2)
E|-7-8-7----7----------------------------------------|
B|-------10----10------10-10-------------------------|
G|----------------------7--7-------------------------|
D|----------------------7--7-------------------------|
A|---------------------------------------------------|
E|-----------------10--------------------------------|

E|----7----------------------------------------------|
B|-10---10-8-10--8-----8--8--------------------------|
G|---------------------5--5--------------------------|
D|---------------------5--5--------------------------|
A|---------------------------------------------------|
E|------------------8--------------------------------|

E|-7-8-10-8-7-8-7------------------------------------|
B|--------------------8-8----------------------------|
G|--------------------9-9----------------------------|
D|--------------------9-9----------------------------|
A|-----------------7---------------------------------|
E|-----------------0---------------------------------|

D
And now my bitter hands
C
Chafe beneath the clouds
Em
Of what was everything

(Guitarra 2)
E|-7-8-7----7----------------------------------------|
B|-------10----10------10-10-------------------------|
G|----------------------7--7-------------------------|
D|----------------------7--7-------------------------|
A|---------------------------------------------------|
E|-----------------10--------------------------------|

E|----7----------------------------------------------|
B|-10---10-8-10--8------8--8-------------------------|
G|----------------------5--5-------------------------|
D|----------------------5--5-------------------------|
A|---------------------------------------------------|
E|------------------8--------------------------------|

E|---------------------------------------------------|
B|---------------------------------------------------|
G|-9-11-11b12--b12r11--9--11--9~---------------------|
D|---------------------------------------------------|
A|---------------------------------------------------|
E|---------------------------------------------------|

D
Oh, the pictures have
C
All been washed in black
Em
Tattooed everything

[Segunda Parte]

(Guitarra 2)
E A5(9)
E|---------------------------------12--12p9~---------|
B|-------------------------10------12--12p9~---------|
G|--------------------------9------------------------|
D|--------------------------7------------------------|
A|-9h11~--------------------0------------------------|
E|-0-------------------------------------------------|

E A5(9)
E|---------------------------------12p9--------------|
B|-------------------------10------------------------|
G|----------------------9--9-------------11b12~------|
D|---------------9-9h11----7-------------------------|
A|-9h11---9-9h11-----------0-------------------------|
E|-0-------------------------------------------------|

E A5(9)
E|--------------------------------7------------------|
B|-------------------------10--10---10-9-10----------|
G|-------------------------9-------------------------|
D|-------------------------7-------------------------|
A|-9h11--------------------0-------------------------|
E|-0-------------------------------------------------|

E
E|-------12~-12-9------------------12~-12-9----------|
B|-------12~------12-9-------------12~------12-9-----|
G|---------------------11-9~---------------------11-9|
D|---------------------------------------------------|
A|9h11-----------------------9h11~-------------------|
E|0----0---------------------0-----------------------|

E A5(9)
I take a walk outside
E A5(9)
I'm surrounded by some kids at play
E A5(9)
I can feel their laughter
E
So why do I sear

[Pré-Refrão]

(Guitarra 2)
E|------------------------------------------|
B|------8---8------8--8--8------------------|
G|------9---9-h10-10-10-10p9----------------|
D|-10--10--10-----10-10-10------------------|
A|-10--10--10-----10-10-10------------------|
E|------------------------------------------|

E|------------------------------------------|
B|------8---8------8--8--8------------------|
G|------9---9-h10-10-10-10p9-------9--------|
D|-10--10--10-----10-10-10-----x-x-9--------|
A|-10--10--10-----10-10-10-----x-x-7--------|
E|-----------------------------x-x-0--------|

E|------------------------------------------|
B|------8---8------8--8--8------------------|
G|------9---9-h10-10-10-10p9----------------|
D|-10--10--10-----10-10-10------------------|
A|-10--10--10-----10-10-10------------------|
E|------------------------------------------|

E|------------------------------------------|
B|------8---8------8--8--8------------------|
G|------9---9-h10-10-10-10p9---9------------|
D|-10--10--10-----10-10-10-----9------------|
A|-10--10--10-----10-10-10-----7------------|
E|-----------------------------0------------|

C
Oh, and twisted thoughts that spin
Em
Round my head
C
I'm spinning, oh, I'm spinning
Em
How quick the Sun can, drop away

(Guitarra 1 - Passagem)

[Segundo Refrão]

(Guitarra 2)
E|-7-8-7----7----------------------------------------|
B|-------10----10------10-10-------------------------|
G|----------------------7--7-------------------------|
D|----------------------7--7-------------------------|
A|---------------------------------------------------|
E|-----------------10--------------------------------|

E|----7----------------------------------------------|
B|-10---10-8-10--8------8--8-------------------------|
G|----------------------5--5-------------------------|
D|----------------------5--5-------------------------|
A|---------------------------------------------------|
E|------------------8--------------------------------|

E|-7-8-10-8-7-8-7------------------------------------|
B|--------------------8-8----------------------------|
G|--------------------9-9----------------------------|
D|--------------------9-9----------------------------|
A|-----------------7---------------------------------|
E|-----------------0---------------------------------|

D
And now my bitter hands
C
Cradle broken glass
Em
Of what was everything

(Guitarra 2)
E|-7-8-7----7----------------------------------------|
B|-------10----10------10-10-------------------------|
G|----------------------7--7-------------------------|
D|----------------------7--7-------------------------|
A|---------------------------------------------------|
E|-----------------10--------------------------------|

E|----7----------------------------------------------|
B|-10---10-8-10--8------8--8-------------------------|
G|----------------------5--5-------------------------|
D|----------------------5--5-------------------------|
A|---------------------------------------------------|
E|------------------8--------------------------------|

E|-7-8-10-8-7-8-7------------------------------------|
B|--------------------8-8----------------------------|
G|--------------------9-9----------------------------|
D|--------------------9-9----------------------------|
A|-----------------7---------------------------------|
E|-----------------0---------------------------------|

D
All the pictures have
C
All been washed in black
Em
Tattooed everything

(Guitarra 2)
E|-7-8-7----7----------------------------------------|
B|-------10----10------10-10-------------------------|
G|----------------------7--7-------------------------|
D|----------------------7--7-------------------------|
A|---------------------------------------------------|
E|-----------------10--------------------------------|

E|----7----------------------------------------------|
B|-10---10-8-10--8------8--8-------------------------|
G|----------------------5--5-------------------------|
D|----------------------5--5-------------------------|
A|---------------------------------------------------|
E|------------------8--------------------------------|

E|---------------------------------------------------|
B|---------------------------------------------------|
G|-9-11-11b12--b12r11-9--11~-------------------------|
D|---------------------------------------------------|
A|---------------------------------------------------|
E|---------------------------------------------------|

E|----7----------------------------------------------|
B|-10---10-8-10--8------8--8-------------------------|
G|----------------------5--5-------------------------|
D|----------------------5--5-------------------------|
A|---------------------------------------------------|
E|------------------8--------------------------------|

D
All the love gone bad
C
Turned my world to black
D
Tattooed all I see
C
All that I am
Em D C Em D C
All that I'll be, yeah

E|-7-8-8h10-8-7-8-7---------------------------------|
B|--------------------------------------------------|
G|--------------------------------------------------|(3x)
D|--------------------------------------------------|
A|--------------------------------------------------|
E|--------------------------------------------------|

E|-0-2-2b3r2--0-2-0---------------------------------|
B|--------------------------------------------------|
G|--------------------------------------------------|
D|--------------------------------------------------|
A|--------------------------------------------------|
E|--------------------------------------------------|

[Solo - Distorção]

Em
I know someday you'll have a beautiful life
D
I know you'll be a star
C Em D
In somebody else's sky, but why, why, why
C Em
Can't it be, can't it be mine

( D C Em )
( D C Em )
( D C Em )
( D C Em )
( D C Em )
( D C D C Em )
( D C Em )
( D C Em )
( D C Em )
( D C Em )

[Solo Final - Frases Utilizadas no Solo]

(Frase 1)
E|-0-0-0-0-0-0-0-0-0-0-0-0-0-0-0-0-0-0-0-0-0-0-0-0---|
B|---------------------------------------------------|
G|---------------------------------------------------|
D|---------------------------------------------------|
A|---------------------------------------------------|
E|---------------------------------------------------|

(Frase 2)
E|-----0-----0-----0-----0-----0---------------------|
B|---5-----5-----5-----5-----5---5-------------------|
G|-9-----9-----9-----9-----9-------------------------|
D|---------------------------------------------------|
A|---------------------------------------------------|
E|---------------------------------------------------|

(Frase 3)
E|-------0-----0-----0-----0-----0-----0-----0-----0-|
B|---------------------------------------------------|
G|-11b12---b12---b12---b12---b12---b12---b12---b12---|
D|---------------------------------------------------|
A|---------------------------------------------------|
E|---------------------------------------------------|

(Frase 4)
E|----0----0----0----0----0----0----0----0----0----0-|
B|-15---15---15---15---15---15---15---17---17---17---|
G|---------------------------------------------------|
D|---------------------------------------------------|
A|---------------------------------------------------|
E|---------------------------------------------------|

E|----0----0----0----0-------------------------------|
B|-17---17---17---17---------------------------------|
G|---------------------------------------------------|
D|---------------------------------------------------|
A|---------------------------------------------------|
E|---------------------------------------------------|

(Frase 5)
E|-15----15----15----15----15----15----15------------|
B|----12----12----12----12----12----12----12---------|
G|---------------------------------------------------|
D|---------------------------------------------------|
A|---------------------------------------------------|
E|---------------------------------------------------|

(Frase 6)
E|---------------------------------------------------|
B|-12-13-13h15-13--12-13-12~-------------------------|
G|---------------------------------------------------|
D|---------------------------------------------------|
A|---------------------------------------------------|
E|---------------------------------------------------|

(Frase 7)
E|-0-12~--0-12~--0-12~--0-12~--0-12~--0-12~--0-12~---|
B|---------------------------------------------------|
G|---------------------------------------------------|
D|---------------------------------------------------|
A|---------------------------------------------------|
E|---------------------------------------------------|

(Frase 8)
E|-15----15----15----15----15----15----15----15/17---|
B|----12----12----12----12----12----12----12---------|
G|---------------------------------------------------|
D|---------------------------------------------------|
A|---------------------------------------------------|
E|---------------------------------------------------|

E|-17----17----17----17----17----17----17----17/19-|
B|----15----15----15----15----15----15----15---------|
G|---------------------------------------------------|
D|---------------------------------------------------|
A|---------------------------------------------------|
E|---------------------------------------------------|

ACORDES PARA GUITARRA

PIANO UKELELE
E
A9
C
Em
D


COMENTARIOS

Aún no hay comentarios,

¡escribe el primero!

Escribe una pregunta, duda o comentario sobre esta canción, te responderemos a la brevedad.

Las más tocadas de Pearl Jam

Toca una Canción al Azar de Pearl Jam
E
A9
C
Em
D