Cropduster
Pearl Jam
Acordes

Subida por NANOESPINOZA
Álbum: Riot Act ( 2002)


Más Versiones
Ver. 2 Ver. 3 Ver. 4 Ver. 5 Ver. 6
+A
-A
intro/outtro:
------------------------------------------------------------------------------
------------------------------------------------------------------------------
-----0-----0-----0-----0------0-11-9------0-----0-----------------------------
---0-----0-----0-----0------0-----------0-----0-----0-------------------------
------------------------------------------------------------------------------
-1-----3-----6-----8-----10-----------1-----3-----6---5-----------------------


verse:
------7-5-------------------7-5--------------------0--------------------------
----------5--8---8--------------5---3--3--3--3--1----0------------------------
----6--------9---9--------6---------4--4--4--4--2------1----------------------
--7---------10--10------7-----------5--5--0--5--3------2----------------------
-------------------------------------------------------2----------------------
------------------------------------------------------------------------------
| repeat |

chorus:
---------------------------------|--------------------------------------------
---------------------------------|--------------------------------------------
----6--6-6--6-6---8---9--9-9-9---|--6--6-6-6-6-6-6---5--5--5---7--7--9--9-9---
----6--6-6--6-6---8---9--9-9-9---|--6--6-6-6-6-6-6---5--5--5---7--7--9--9-9---
-6--4--4-4--4-4---6---7--7-7-7---|--4--4-4-4-4-4-4-5-3--3--3---5--5--7--7-7---
-4-------------------------------|-----------------3--------------------------
| 2x | | repeat |


solo:
------------------------------------------------------------------------------
--12h13p12--10--12--10--8--10vv-10vv-8--12h13p12p10-12-13-15br-13-12h13p12----
------------------------------------------------------------------------------
------------------------------------------------------------------------------
------------------------------------------------------------------------------
------------------------------------------------------------------------------


------------------------------------------------------------------------------
--10-----10--------5-----------8-8br-5----------------------------------------
-----12b----12br----7brp5---5---------7-5-7brp5p4--4h52--------------------
---------------------------7--------------------------------------------------
------------------------------------------------------------------------------
------------------------------------------------------------------------------

break:
------------------------------------------------------------------------------
------------------------------------------------------------------------------
------------------------------------------------------------------------------
--9-9-9-9-9-9-9-9-10-10-10-10-10-10-10-9-9-9-9-9-9-9-9-10-10-10-10-10-10-10---
--7-7-7-7-7-7-7-7-7--7--7--7--7--7--7--7-7-7-7-7-7-7-7-7--7--7--7--7--7--7----
--0-0-0-0-0-0-0-0-0--8--8--8--8--8--8--7-7-7-7-7-7-7-7-8--8--8--8--8--8--8----


------------------------------------------------------------------------------
------------------------------------------------------------------------------
------------------------------------------------------------------------------
-7-7-7-7-7-4-9----------------------------------------------------------------
-5-5-5-5-5-2-7----------------------------------------------------------------
-------------0----------------------------------------------------------------
back into first part of intro

ACORDES PARA GUITARRA

PIANO UKELELE


COMENTARIOS

Aún no hay comentarios,

¡escribe el primero!

Escribe una pregunta, duda o comentario sobre esta canción, te responderemos a la brevedad.

Las más tocadas de Pearl Jam

Toca una Canción al Azar de Pearl Jam