Daughter
Pearl Jam
Acordes

Subida por Centuflorcdo
Álbum: Vs. ( 1993)


Más Versiones
Ver. 2 Ver. 3 Ver. 4 Ver. 5 Ver. 6
+A
-A
[Intro]

E|----------------|
B|-3--3--3--3-3-3-|
G|-0--4--2--4-4-4-|
D|-0--0--0--0-0-0-|
A|----------------|
E|-3--3-----3-3-3-|

E|-----------------|
B|-3--3--3--3--3-3-|
G|-0--4--2--0--0-0-|
D|-0--0--0--0--0-0-|
A|-----------------|
E|-3--3-----3--3-3-|

E|---------------------------------------|
B|-3--3--3--3--3-3-----3--3-3--3-3--3-3--|
G|-0--4--2--0--0-0-----2--2-2--2-2--2-2--|
D|-0--0--0--0--0-0-----0--0-0--0-0--0-0--|
A|---------------------------------------|
E|-3--3-----3--3-3-----3--3-3--3-3--3-3--|

G G4 G G4 G G4 G G4
Alone, listless. Breakfast table in an otherwise empty room
G G4 G G4 G G4 G G4
Young girl, violence. Center of her own attention
G G4 G G4 G G4
The mother reads aloud, child tries to understand it
G G4
Tries to make her proud
G G4 Em7 Em6 Em7 Em6
The shades go down. It's in her head
Em7 Em6 Em7 Em6
Painted room. Can't deny there's something wrong

G G4 G G4
Don't call me daughter. Not fit to
G G4 G G4
The picture kept will remind me
G G4 G G4
Don't call me daughter. Not fit to
G G4 G G4
The picture kept will remind me
G G4
Don't call me

( Em7 Em6 Em7 Em6 Em7 Em6 Em7 Em6 G G4 )

Em7 Em6 Em7 Em6 Em7 Em6
She holds the hand that holds her down
Em7 Em6 G G4 G G4 G G4 G G4
She will rise above. Ooh Oh

( G G4 G G4 G G4 G G4 )

G
Don't call me daughter. Not fit to
G
The picture kept will remind me
G
Don't call me daughter. Not fit to be
G
The picture kept will remind me
G G4 G G4
Don't call me daughter. Not fit to
G G4 G G4
The picture kept will remind me
G G4 G G4
Don't call me daughter. Not fit to be
G G4 G G4
The picture kept will remind me
G
Don't call me

The shades go down
The shades go down
The shades go Go Go

ACORDES PARA GUITARRA

PIANO UKELELE
G
G4
Em7
Em6


COMENTARIOS

Aún no hay comentarios,

¡escribe el primero!

Escribe una pregunta, duda o comentario sobre esta canción, te responderemos a la brevedad.

Las más tocadas de Pearl Jam

Toca una Canción al Azar de Pearl Jam
G
G4
Em7
Em6