Faithfull
Pearl Jam
Acordes

Subida por netosong
Álbum: Yield ( 1998)


Más Versiones
Ver. 2 Ver. 3 Ver. 4 Ver. 5 Ver. 6
+A
-A
G1 (mike)  DGDGBD
G2 (stone) standard

-|--------------------------------------------------------------|-------------
-|-8--8-----8--8-----8--11--10--10--10--10--10--10--10--10--12--|-------------
-|-5--5--5--5--5--5--5---8---7---7---7---7---7---7---7---7---7--|-------------
-|-7--7--7--7--7--7--7------------------------------------------|-------------
-|--------------------------------------------------------------|-------------
-|--------------------------------------------------------------|-------------
Intro, G1

-|------------------------------------------------------------|---------------
-|-8--8--8-----8--8--8--8--11--10--10--10--12--10--10---------|---------------
-|-5--5--5--5--5--5--5--5---8---7---7---7---7---7---7--7h9p7--|---------------
-|-7--7--7--7--7--7--7--7-------------------------------------|---------------
-|------------------------------------------------------------|---------------
-|------------------------------------------------------------|---------------


-|----------------------------------------------------------|-----------------
-|-8--8--8--8--8--8--8--11--10--10--10--12--10--10--10--10--|-----------------
-|-5--5--5--5--5--5--5---8---7---7---7---7---7---7---7---7--|-----------------
-|-7--7--7--7--7--7--7--------------------------------------|-----------------
-|----------------------------------------------------------|-----------------
-|----------------------------------------------------------|-----------------


-|-----------------------------------------------------------------|----------
-|-8--8--8--8--8--8--8--8--11--10--10--10--10--12--10--10--10--12--|----------
-|-5--5--5--5--5--5--5--5---8---7---7---7---7---7---7---7---7---7--|----------
-|-7--7--7--7--7--7--7--7------------------------------------------|----------
-|-----------------------------------------------------------------|----------
-|-----------------------------------------------------------------|----------


-|----------------------------------------------------------|-----------------
-|-8--8--8--8--8--8--11--10--10--10--10--12--10--10---------|-----------------
-|-5--5--5--5--5--5---8---7---7---7---7---7---7---7--7h9p7--|-----------------
-|-7--7--7--7--7--7-----------------------------------------|-----------------
-|----------------------------------------------------------|-----------------
-|----------------------------------------------------------|-----------------


-|--------------------------------------------------------|------------|------
-|-8--8--8--8--8--8--8--8--8--11--10--10--10--12--10--10--|------------|------
-|-5--5--5--5--5--5--5--5--5---8---7---7---7---7---7---7--|------------|------
-|-7--7--7--7--7--7--7--7--7------------------------------|-5-5-5-5-5--|------
-|--------------------------------------------------------|-5-5-5-5-5--|------
-|--------------------------------------------------------|-3-3-3-3-3--|------
With--> Fill 1

-|----------------------------|---------------------------|-------------------
-|----------------------------|---------------------------|-------------------
-|----------0---3-3---3-3--0--|---------0---3-3---3-3--0--|-------------------
-|----------0---3-3---3-3--0--|---------0---3-3---3-3--0--|-------------------
-|-5b6r5p-3-0---3-3---3-3--0--|-3b4r3-1-x---1-1---1-1--x--|-------------------
-|----------------------------|---------3--------------3--|-------------------
Pre-chorus, G1 4x Pre-chorus, G2 4x

-|--------------------------------------------------------------|-------------
-|--------------------------------------------------------------|-------------
-|-5--0-0---0-0-0--5--0-0---0-0--8--5-5--5-5-5--7--0-0--0-0-0---|-------------
-|-5--0-0---0-0-0--5--0-0---0-0--8--5-5--5-5-5--7--0-0--0-0-0---|-------------
-|-5--0-0---0-0-0--5--0-0---0-0--8--5-5--5-5-5--7--0-0--0-0-0---|-------------
-|--------------------------------------------------------------|-------------
Chorus, G1 4x
-|--------------------------------------------------------------|-------------
-|-----------------------8--------------------------------------|-------------
-|-5--4-4---5-4-4---/12--9-------------------------------0-0-0--|-------------
-|-5--5-5---5-5-5-------10-10-10-10-10-10-10-12-12-12-12---0-0--|-------------
-|-3--5-5---3-5-5----------10-10-10-10-10-10----10-10-10--------|-------------
-|----3-3-----3-3-----------8--8--8--8--8--8----10-10-10--------|-------------
Chorus, G2

-|-----------------------------------------------------|----------------------
-|-----------------------8-----------------------------|----------------------
-|-5--4-4---5-4-4---/12--9-----------------10h12-10----|----------------------
-|-5--5-5---5-5-5-------10-10-10-10-10-10-----------9--|----------------------
-|-3--5-5---3-5-5----------10-10-10-10-10--------------|----------------------
-|----3-3-----3-3-----------8--8--8--8--8--------------|----------------------


-|------------------10------------------------------------------|-------------
-|----------------------8---------------------------------------|-------------
-|-5--4-4---5-4-4-------9------8--8--8--8-----------------------|-------------
-|-5--5-5---5-5-5------10-10--10-10-10-10-12-12-12-12-12-12-12--|-------------
-|-3--5-5---3-5-5---------10--10-10-10-10----10-10-10-10-10-10--|-------------
-|----3-3-----3-3----------8---8--8--8--8----10-10-10-10-10-10--|-------------


-|------------------10--------------------------------|-----------------------
-|----------------------8-----------------------------|-----------------------
-|-5-4-4---5-4-4--/-----9-----------------10h12-10----|-----------------------
-|-5-5-5---5-5-5-------10-10-10-10-10-10-----------9--|-----------------------
-|-3-5-5---3-5-5----------10-10-10-10-10--------------|-----------------------
-|---3-3-----3-3-----------8--8--8--8--8--------------|-----------------------


-|-----------------------------------------------------|----------------------
-|-----------------------------------------------------|----------------------
-|------------3--3--x-x-x-x-------------5--5-----------|----------------------
-|------------3--3--x-x-x-x-------------5--5--x-x-x-x--|----------------------
-|-5b6r5p3p0--3--3--x-x-x-x--5b6r5p3p0--5--5--x-x-x-x--|----------------------
-|-----------------------------------------------------|----------------------
Bridge, G1

-|-------------------------------------|--------------------------|-----------
-|-------------------------------------|--------------------------|-----------
-|-12-12-12-12-10-12-12-12-12-12-10-12-|------------8--8--8-8-0---|-----------
-|--x--x--x--x--x--x--x--x--x--x--x--x-|-7b8r7p5p0--8--8--8-8-0---|-----------
-|-12-12-12-12-12-12-12-12-12-12-12-12-|------------8--8--8-8-----|-----------
-|-------------------------------------|--------------------------|-----------


-|------------------------------------------------------------|---------------
-|------------------------------------------------------------|---------------
-|------------10--10-10--12-12-12-12-10-12-12-12-12-12-10-12--|---------------
-|-7b8r7p5p0--10--10-10---x--x--x--x--x--x--x--x--x--x--x--x--|---------------
-|------------10--10-10--12-12-12-12-12-12-12-12-12-12-12-12--|---------------
-|------------------------------------------------------------|---------------


-|--------------------------------------------------------------|-------------
-|--------------------------------------------------------------|-------------
-|------------3--3--3-3-0-------------5--5-5--12-12-12-12-10-12-|-------------
-|------------3--3--3-3-0-------------5--5-5---x--x--x--x--x--x-|-------------
-|-5b6r5p3p0--3--3--3-3----5b6r5p3p0--5--5-5--12-12-12-12-12-12-|-------------
-|--------------------------------------------------------------|-------------
with Fill 2

-|-------------------|------------------------------------------|-------------
-|-------------------|------------------------------------------|-------------
-|-12-12-12-12-10-12-|------------8--8-8-------------10--10-10--|-------------
-|--x--x--x--x--x--x-|-7b8r7p5p0--8--8-8--7b8r7p5p0--10--10-10--|-------------
-|-12-12-12-12-12-12-|------------8--8-8-------------10--10-10--|-------------
-|-------------------|------------------------------------------|-------------


-|--------------------|-------------------------------------------------------
-|--------------------|-------------------------------------------------------
-|-12-12-12-12-10-12--|-------------------------------------------------------
-|--x--x--x--x--x--x--|-------------------------------------------------------
-|-12-12-12-12-12-12--|-------------------------------------------------------
-|--------------------|-------------------------------------------------------


-|------------------------------------------------------------------------|---
-|------------------------------------------------------------------------|---
-|-3--3--x-x-0-0------------5--5-5--12-12-12-12-10-12--12-12-12-12-10-12--|---
-|-3--3--x-x-0-0------------5--5-5--12-12-12-12-12-12--12-12-12-12-12-12--|---
-|-1--1-----------3b4r3p1---3--3-3--10-10-10-10-10-10--10-10-10-10-10-10--|---
-|------------------------3-----------------------------------------------|---
Bridge, G2

-|--------------------------------------------------------------------------|-
-|--------------------------------------------------------------------------|-
-|------------8--8-8-------------5--5-5-12-12-12-12-10-12-12-12-12-12-10-12-|-
-|-7b8r7p5p0--8--8-8--7b8r7p5p0--5--5-5-12-12-12-12-12-12-12-12-12-12-12-12-|-
-|------------6--6-6-------------3--3-3-10-10-10-10-10-10-10-10-10-10-10-10-|-
-|--------------------------------------------------------------------------|-


-|--------------------------------------------|-------------------------------
-|--------------------------------------------|-------------------------------
-|-----------3--3-3-x-x---------------5--5-5--|-------------------------------
-|-----------3--3-3-x-x-x-x-----------5--5-5--|-------------------------------
-|-3b4r3p1---1--1-1-----x-x-3b4r3p1---3--3-3--|-------------------------------
-|---------3------------3-3---------3---------|-------------------------------


-|-------------------------------------|------------------------------------|-
-|-------------------------------------|------------------------------------|-
-|-12-12-12-12-10-12-12-12-12-12-10-12-|-----------8-8-8-----------10-10-10-|-
-|-12-12-12-12-12-12-12-12-12-12-12-12-|-7b8r7p5p0-8-8-8-7b8r7p5p0-10-10-10-|-
-|-10-10-10-10-10-10-10-10-10-10-10-10-|-----------6-6-6------------8--8--8-|-
-|-------------------------------------|------------------------------------|-
with Fill 2

-|--------------------|------------------|-------------|----------------------
-|--------------------|-6b8r6-/8---------|-------------|----------------------
-|-12-12-12-12-10-12--|----------5b6--5--|-12vvvvvv---|----------------------
-|-12-12-12-12-12-12--|------------------|-------------|----------------------
-|-10-10-10-10-10-10--|------------------|-------------|----------------------
-|--------------------|------------------|-------------|----------------------
Fill 2 Fill 3

-|-------------------|---------------------|---------------------|------------
-|-------------------|---------------------|---------------------|------------
-|---------0--3-3--0-|---------0--3-3---0--|---------0--3-3---0--|------------
-|-5b6r5-3-0--3-3--0-|---------0--3-3---0--|---------0--3-3---0--|------------
-|-5b6r5-3-0--3-3--0-|-5b6r5-3-0--3-3---0--|-5b6r5-3-0--3-3---0--|------------
-|-------------------|---------------------|---------------------|------------
Pre Chorus, G1 with Fill 3

-|-------------------|----------------------------|---------------------------
-|-------------------|----------------------------|---------------------------
-|---------0--3-3--0-|---------0---3-3---3-3---0--|---------------------------
-|---------0--3-3--0-|---------0---3-3---3-3---0--|---------------------------
-|-5b6r5-3-0--3-3--0-|-3b4r3-1-x---1-1---1-1---x--|---------------------------
-|-------------------|---------3---------------3--|---------------------------
Pre-chorus, G2 4x

-|--------------------------------------------------------------|-------------
-|--------------------------------------------------------------|-------------
-|-5--0-0---0-0-0--5--0-0---0-0--8--5-5--5-5-5--7--0-0--0-0-0---|-------------
-|-5--0-0---0-0-0--5--0-0---0-0--8--5-5--5-5-5--7--0-0--0-0-0---|-------------
-|-5--0-0---0-0-0--5--0-0---0-0--8--5-5--5-5-5--7--0-0--0-0-0---|-------------
-|--------------------------------------------------------------|-------------
Chorus, G1 4x
-|------------------------------------------------------------------|---------
-|------------------------8-----------------------------------------|---------
-|-5--4-4---5--4-4---/12--9-----------------------------------------|---------
-|-5--5-5---5--5-5-------10-10-10-10-10-10-10-12-12-12-12-12-12-12--|---------
-|-3--5-5---3--5-5----------10-10-10-10-10-10----10-10-10-10-10-10--|---------
-|----3-3------3-3-----------8--8--8--8--8--8----10-10-10-10-10-10--|---------
Chorus, G2

-|------------------------------------------------------|---------------------
-|------------------------8-----------------------------|---------------------
-|-5--4-4---5--4-4---/12--9-----------------10h12-10----|---------------------
-|-5--5-5---5--5-5-------10-10-10-10-10-10-----------9--|---------------------
-|-3--5-5---3--5-5----------10-10-10-10-10--------------|---------------------
-|----3-3------3-3-----------8--8--8--8--8--------------|---------------------


-|-------------------10-------------------------------------------|-----------
-|-----------------------8----------------------------------------|-----------
-|-5--4-4---5--4-4-------9----------------------------------------|-----------
-|-5--5-5---5--5-5------10--10-10-10-10-10--12-12-12-12-12-12-12--|-----------
-|-3--5-5---3--5-5----------10-10-10-10-10--10-10-10-10-10-10-10--|-----------
-|----3-3------3-3-----------8--8--8--8--8--10-10-10-10-10-10-10--|-----------


-|-------------------10----------------------------------------------|--------
-|-----------------------8-------------------------------------------|--------
-|-5--4-4---5--4-4-------9-----------------10h12-10------------------|--------
-|-5--5-5---5--5-5------10-10-10-10-10-10------------9b10r9----------|--------
-|-3--5-5---3--5-5---------10-10-10-10-10-------------------108/10--|--------
-|----3-3------3-3----------8--8--8--8--8----------------------------|--------


-|---------------------------------------------------------------------|------
-|-8--8--8-----8--8--8--8--11--10--10--10--10--10--10--10--10--10--10--|------
-|-5--5--5--5--5--5--5--5---8---7---7---7---7---7---7---7---7---7---7--|------
-|-7--7--7--7--7--7--7--7----------------------------------------------|------
-|---------------------------------------------------------------------|------
-|---------------------------------------------------------------------|------
Outro, G1

-|-------------7---------------------------------------------------|----------
-|-8--8--8--8-----8--8--8--11--10--10--10--10--10--10--10--10--12--|----------
-|-5--5--5--5-----5--5--5---8---7---7---7---7---7---7---7---7---7--|----------
-|-7--7--7--7-----7--7--7------------------------------------------|----------
-|-----------------------------------------------------------------|----------
-|-----------------------------------------------------------------|----------


-|-------------------------------------------------------------|--------------
-|-8--8--8--8--8--8--8--11--10--10--10--10--12--10--10--10-----|--------------
-|-5--5--5--5--5--5--5---8---7---7---7---7---7---7---7---7--9--|--------------
-|-7--7--7--7--7--7--7-----------9-----------------------------|--------------
-|-------------------------------------------------------------|--------------
-|-------------------------------------------------------------|--------------


-|--------------------------------------------------------------|-------------
-|-8--8--8--8--8--8--8--11--10--10--10--10--10--12--10--10------|-------------
-|-5--5--5--5--5--5--5---8---7---7---7---7---7---7---7---7h9p7--|-------------
-|-7--7--7--7--7--7--7------------------------------------------|-------------
-|--------------------------------------------------------------|-------------
-|--------------------------------------------------------------|-------------


-|-------------------------------------------------------|--------------------
-|-8--8--8-----8--8-----8--11--10--10--10--12--10--------|--------------------
-|-5--5--5--5--5--5--5--5---8---7---7---7---7---7--7--7--|--------------------
-|-7--7--7--7--7--7--7--7-----------9--------------9--9--|--------------------
-|-------------------------------------------------------|--------------------
-|-------------------------------------------------------|--------------------


-|------------------------------------------------------|---------------------
-|-8--8--8--8--8--8--8--11--10--10--10--10--10--10--10--|---------------------
-|-5--5--5--5--5--5--5---8---7---7---7---7---7---7---7--|---------------------
-|----------------7--7-----------9---------------9------|---------------------
-|------------------------------------------------------|---------------------
-|------------------------------------------------------|---------------------


-|------------------------------|---------------------------------------------
-|-8--8--8--8--8--8--8--11---8--|---------------------------------------------
-|-5--5--5--5--5--5--5---8---7--|---------------------------------------------
-|----7--7--7--7--7--7-------5--|---------------------------------------------
-|------------------------------|---------------------------------------------
-|------------------------------|---------------------------------------------

ACORDES PARA GUITARRA

PIANO UKELELE


COMENTARIOS

Aún no hay comentarios,

¡escribe el primero!

Escribe una pregunta, duda o comentario sobre esta canción, te responderemos a la brevedad.

Las más tocadas de Pearl Jam

Toca una Canción al Azar de Pearl Jam