Fatal (Acordes)

Pearl Jam

Subida por RobertShomi

Compartir


Imprimir FAQ
+A
-A

Texto

Desplazamiento

Transportador

Color de Fondo

Archivos

-A
+A
-|-------0----------0--------0----------0---------|---------------------------
-|-------1----------1--------0----------0---------|---------------------------
-|-------2----------0--------2----------0---------|---------------------------
-|----2----------2--------------------------------|---------------------------
-|--0-------0--3---------3-----------2-----2--0---|---------------------------
-|---------------------1--------1--0--------------|---------------------------
   Intro/Verse                                                                      

-|------12----|-|-------------------------------------------------------------
-|---12-------|-|-------------------------------------------------------------
-|------------|-|-------------------------------------------------------------
-|------------|-|-------0--2--3-----0-2---------------------------------------
-|------------|-|-----3-----------------3--0----------------------------------
-|------------|-|-------------------------------------------------------------
   feedback @
   end of 1st verse

-|-----------------3---------5------3--------------3----------5------3--------
-|---1--3-------1----------6----------5----3----------------6------5------3---
-|-----------------------5-------5-------5---5--5-----5---5------5------5---5-
-|---------3---------3--------------------------------------------------------
-|----------------------------------------------------------------------------
-|----------------------------------------------------------------------------
    G3: lead behind 2nd verse                                                 

-|-------5------3-------------------------------------------------------------
-|-----6------5-------3-------5-----------------------------------------------
-|---5------4-------5---5---5---5---------------------------------------------
-|----------------------------------------------------------------------------
-|----------------------------------------------------------------------------
-|----------------------------------------------------------------------------
                                                                              

-|---0----------------------------0-------------------------------------------
-|---3---3-3-3-3---3---3-3--------1-------------------------------------------
-|---2---2-2-2-2---1---1-1----0---0----0----2--2---0--------------------------
-|---0------------------------0---2----0----3--3---0--------------------------
-|---0------------------------0---3----0----3--3------------------------------
-|------------------------------------------1--1------------------------------
    Chorus                                                                    

-|------------0-------------------------------------------------0-------------
-|---3----------3------1------1--1------------------3--3----------3------1----
-|-----2----------1----0------0--0---2-2-2--2-2-2---2----2---2------1----0----
-|-------4-3-----------2---2--2--2---3-3-3--3-3-3---0------4-------------2----
-|---------------------3---3---------3-3-3--3-3-3---0--------------------3----
-|-----------------------------------1-1-1--1-1-1-----------------------------
                                                                              

-|--------------------|-|--0-----0--------|------------------------------3----
-|---1-1-1------------|-|----1-----1------|------3------3-3--------------3----
-|---0-0-0----2---2---|-|------2-----2----|------2------1-1-------2------0----
-|---2-2-2----3---3---|-|-----------------|------0------0-0-------3------0----
-|---3-3-3----3---3---|-|-----------------|-----------------------3------x----
-|------------1---1---|-|-----------------|-----------------------1------3----
                          2:41                  End of Chorus                 

-|-------0--------------------------------------------------------------------
-|-----1-----0h1--0---1--3--5-------------------------------------------------
-|-----------2----2---2--2--2-------------------------------------------------
-|-----------0----0-----------------------------------------------------------
-|--0-------------------------------------------------------------------------
-|----------------------------------------------------------------------------
    end                                                                       

-|--------12*-----------------------------------------------------------------
-|--12*-----------------------------------------------------------------------
-|-------------12*--7*---------7*---------------------------------------------
-|------------------------7*--------------------------------------------------
-|----------------------------------12*---------------------------------------
-|----------------------------------------------------------------------------
    harmonics (instead of feed back at end)          

Video Clip de Fatal


ACORDES PARA GUITARRA

PIANO UKELELE


TOP 20: Las más tocadas de Pearl Jam


Toca una Canción al Azar de Pearl Jam

Acordes

Cerrar

22.43

x

204