Footsteps
Pearl Jam
Acordes

Subida por N5FXX


Más Versiones
Ver. 2 Ver. 3 Ver. 4 Ver. 5 Ver. 6

Cambiar Cifrado
Americano Latino

Cambiar Tonalidad
-1 +1

Partir Pantalla Imprimir FAQ

+A
-A
----------------|---------------------------------------------|---------------
----------------|---------------------------------------------|---------------
----------------|----------------0----------------------------|---------------
----------------|---------------------------------------------|---------------
----------------|---------------------------------------------|---------------
---3---3---3----|---------1h3-------3-1-----------------------|---------------
|---p.m.---| 12x till chorus with slight variations

------------------------------------------------------------------------------
-------------0-0-0-0-----1-3-3-/-3-3-3-3-3-3---1-1-1-/-3-3-3-3-3--------------
-------------0-0-0-0-----0-0-0-/-0-0-0-0-0-0---0-0-0-/-0-0-0-0-0--------------
-------------0-0-0-0-----2-2-2-/-4-4-4-4-4-4---2-2-2-/-4-4-4-4-4--------------
-------------0-0-0-0-----3-3-3-/-5---------5---3-3-3-/-5-------5--------------
------------------------------------------------------------------------------
***CHORUS*** I... Did... what i had to do

------------------------------0-0-0-0---------------|---------------|---------
----1-3-3-/-3-3-3-3-3---------0-0-0-0---------------|---------------|---------
----0-0-0-/-0-0-0-0-0---------0-0-0-0---------------|-------0-------|---------
----2-2-2-/-4-4-4-4-4---------2-2-2-2---------------|---------------|---------
----3-3-3-/-5-------5---------2-2-2-2---------------|---------------|---------
------------------------------------0---------------|--1h3-----3--1-|---------
if there was a reason, it was you... 8x
------------------------------------------------------------------------------
------0-0-0------1-3-3-/-3-3-3-3-3----1-1-1-/-3-3-3-3-3------------1-3-3-/----
------0-0-0------0-0-0-/-0-0-0-0-0----0-0-0-/-0-0-0-0-0------------0-0-0-/----
------0-0-0------2-2-2-/-4-4-4-4-4----2-2-2-/-4-4-4-4-4------------2-2-2-/----
------0-0-0------3-3-3-/-5-------5----3-3-3-/-5-------5------------3-3-3-/----
------------------------------------------------------------------------------
***CHORUS 2*** I... got scratches all over my arms...

---------------------0-0-0-0-0-0----------------------------------------------
---3-3-3-3-3---------0-0-0-0-0-0---------------1-3-3-/-3-3-3------------------
---0-0-0-0-0---------0-0-0-0-0-0---------------0-0-0-/-0-0-0------------------
---4-4-4-4-4---------2-2-2-2-2-2---------------2-2-2-/-4-4-4------------------
---5-------5---------2-2-2-2-2-2---------------3-3-3-/-5-5-5------------------
-------------------------------0----------------------------------------------
one for each day... since I fell apart... (goto first chorus for I

---------------------------|----3-3-3----0-0-0-0------------------------------
---------------------------|----3-3-3----2-2-2-2------------------------------
---------------------------|----0-0-0----2-2-2-2------------------------------
---------------------------|----0-0-0----2-2-2-2------------------------------
---------------------------|----2-2-2----0-0-0-0------------------------------
---------------------------|----3-3-3-----------------------------------------
did part...) Footsteps in the hall... (continue G to A

---------------|--------------|-----------------------------------------------
---------------|--------------|-----------------------------------------------
---------------|-------0------|-----------------------------------------------
---------------|--------------|-----------------------------------------------
---------------|--------------|-----------------------------------------------
---------------|--1h3----3-1--|-----------------------------------------------
progression.) 4x Repeat CHORUS 1 twice, then continue with
-------------------------------------------------|----------------------------
-------------------------------------------------|----------------------------
-------------------------------------------------|--------0-------------------
-------------------------------------------------|----------------------------
-------------------------------------------------|----------------------------
-------------------------------------------------|----1h3---3-1---------------
the Footsteps in the hall G to A progression. OUTRO

------------------------------------------------------------------------------
------------------------------------------------------------------------------
-----0--------------------------------0---------------------------------------
---------------------0--------------------------------------------------------
------------------------------------------------------------------------------
-1h3---3-1-------1h3---3-1-------1h3----3-1-----------------------------------
Fade Out.

ACORDES PARA GUITARRA

PIANO UKELELE
G
A


COMENTARIOS

Aún no hay comentarios,

¡escribe el primero!

Escribe una pregunta, duda o comentario sobre esta canción, te responderemos a la brevedad.

Las más tocadas de Pearl Jam

Toca una Canción al Azar de Pearl Jam
G
A