Garden
Pearl Jam
Acordes

Subida por davidmenruz
Álbum: Ten ( 1991)


Más Versiones
Ver. 2 Ver. 3 Ver. 4 Ver. 5 Ver. 6
+A
-A
This is basically the songbook's notes transcribed to their proper positions,
according to the way Stone described that he played it in an interview.
Stone's in Dropped-D tuning, Mike is standard.

-|---------------------------------|-------------------0-------------|--------
-|-7p5---5p0---------0---------0---|-7p5---5p0-------------------0---|--------
-|-------------0h5-------5p0-------|-------------0h5-------5p0-------|--------
-|-7---7-----7-----7---7-----7---7-|-7---7-----7-----7---7-----7---7-|--------
-|---------------------------------|---------------------------------|--------
-|---------------------------------|---------------------------------|--------
Stone

-|---------------------------------|-----------------|------------------------
-|-7p5---5p0---------0---------0---|-7p5---5p0-------|------------------------
-|-------------0h5-------5p0-------|-------------0h5-|------------------------
-|-7---7-----7-----7---7-----7---7-|-7---7-----7-----|------------------------
-|---------------------------------|-----------------|------------------------
-|---------------------------------|-----------------|------------------------

-|-------------------0-----------|------------------0-------------|-----------
-|-7p5---5p0---------------------|-7p5--5p0-----------------------|-----------
-|-------------0h5-------5p0---5-|------------0h5-------5p0---5---|-----------
-|-7---7-----7-----7---7-----7---|-7--------7-----7---7-----7---7-|-----------
-|-------------------------------|--------------------------------|-----------
-|-------------------------------|--------------------------------|-----------

-|-------------------------0-----------|-------------------0-----------|------
-|-7p5--5--5p0---------0-----------0---|-7p5---5p0-------------------0-|------
-|---------------0h5-----5---5p0-------|-------------0h5-------5p0-----|------
-|-7----7------7-----7---5-------7---7-|-7---7-----7-----7---7-----7---|------
-|-------------------------------------|-------------------------------|------
-|-------------------------------------|-------------------------------|------
With Fill 1 With Fill 2

-|-------------------------------|--------------------------|-----------------
-|-7p5---5p0---------0---0-----0-|-7p5--5p0-------0-------0-|-----------------
-|-------------0h5-----5---0-----|------------0h5---5p0-----|-----------------
-|-7---7-----7-----7---------7---|-7--------7-----------7---|-----------------
-|-------------------------------|--------------------------|-----------------
-|-------------------------------|--------------------------|-----------------
With Fill 3 2x, second time with Fill 4
-|-----------------------------|-----------------------------|----------------
-|-7p5---5p0-------0-------0---|-7p5---5p0-------0-------0---|----------------
-|-------------0h5---5p0-------|-------------0h5---5p0-------|----------------
-|-7---7-----7-----------7---7-|-7---7-----7-----------7---7-|----------------
-|-----------------------------|-----------------------------|----------------
-|-----------------------------|-----------------------------|----------------
With Fill 5

-|-----------------------------|-----------------------------|----------------
-|-7p5---5p0-------0-------0---|-7p5---5p0-------0-------0---|----------------
-|-------------0h5---5p0-------|-------------0h5---5p0-------|----------------
-|-7---7-----7-----------7---7-|-7---7-----7-----------7---7-|----------------
-|-----------------------------|-----------------------------|----------------
-|-----------------------------|-----------------------------|----------------
With Fill 6 2x

-|-------------------0-------------|-----------------|------------------------
-|-7p5---5p0-----------0-------0---|-7p5---5p0-------|------------------------
-|-------------0h5-------5p0-------|-------------0h5-|------------------------
-|-7---7-----7-----7---------7---7-|-7---7-----7-----|------------------------
-|---------------------------------|-----------------|------------------------
-|---------------------------------|-----------------|------------------------
3x
-|-7vvvv-|-----7-|--7p5--|--------|-----8----|--------------|-----------------
-|-5vvvv-|-----5-|-------|--------|-----8h10-|------5-5-----|-----------------
-|-5vvvv-|-----5-|-------|-5h7p5--|----------|------5-5h7p5-|-----------------
-|-------|-------|-------|--------|----------|--------------|-----------------
-|-------|-------|-------|--------|----------|--------------|-----------------
-|-------|-------|-------|--------|----------|--------------|-----------------
Fill 1 Fill 2 Fill 3 Fill 4 Fill 5 Fill 6

-|-------5-----5--5-5--3--3----|------------------------------------|---------
-|-------5-----5--5-5--3--3----|-------5----------------------------|---------
-|-------5-----5--5-5--0--0----|-------5-----------4-4-4----4--4----|---------
-|-7--7--7-----5--5-5--5--5----|-7--7--7-----------5-5-5----5--5----|---------
-|-7--7--7--7--5--5-5--5--5----|-7--7-------7-7-5--5-5-5-5--5--5-5--|---------
-|-7--7--7--7--5--5-5--5--5----|-5--5-------5-5-3--3-3-3-3--3----3--|---------
Chorus, Stone(w/variations) 4x Chorus, Mike
-|----------------------------------|-------------------------------------|---
-|-------5------------0-------------|-------5-----5-----------------------|---
-|-------5------------0------4------|-------5-----5-----------------------|---
-|-7--7--7---------5-----5---5--5---|-------7-----7--0--5----5-5--5---5---|---
-|-7--7-------5h7--7-----5---5--5-5-|-x-7---------------5h7--7-7--5---5---|---
-|-5--5-------3----------3---3----3-|-x-5-------------------------3---3---|---

-|------------------------------------|---------------------------------------
-|-----------------------5-5-5--3-----|---------------------------------------
-|-----5--5----5-5-------5-5-5--4-----|---------------------------------------
-|---5----7----5-5-------7-7-7--5-----|---------------------------------------
-|-7------7---------5h7---------5-----|---------------------------------------
-|------------------------------3-----|---------------------------------------

-|----------------------------|-----------------0-----------|-----------------
-|-7p5---5p0--------0-------0-|-7p5---5p0---------0-------0-|-----------------
-|-------------0h5--0-5p0-----|-------------0h5-----5p0-----|-----------------
-|-7---7-----7------------7---|-7---7-----7-------------7---|-----------------
-|----------------------------|-----------------------------|-----------------
-|----------------------------|-----------------------------|-----------------
Stone

-|---------------------------|--------------|-----------------0-------------|-
-|-7p5---5p0-------0-------0-|-7p5-5p0------|-7p5---5p0---------0-------0---|-
-|-------------0h5-0-5p0-----|----------0h5-|-------------0h5-----5p0-------|-
-|-7---7-----7-----------7---|-7--7---7-----|-7---7-----7-------------7---7-|-
-|---------------------------|--------------|-------------------------------|-
-|---------------------------|--------------|-------------------------------|-
With Fill 7 3x w/Fill 8
-|-------------------|-5-7----5-|-5----|---7vvvvvv-|-7vvvvvvvv-|-8----|-------
-|-7p5---5p0---------|-5------5-|-5----|---5vvvvvv-|-5vvvvvvvv-|-8----|-------
-|-------------0h5---|-5------5-|---5--|--5--------|-5vvvvvvvv-|------|-------
-|-7---7-----7-------|-7------7-|------|-7---------|-7vvvvvvvv-|------|-------
-|-------------------|----------|------|-----------|-----------|------|-------
-|-------------------|----------|------|-----------|-----------|------|-------
Fill 7 Fill 8

-|---5--5--5--3--3-|---5---------------------|--------------------------------
-|---5--5--5--3--3-|---5---------------------|--------------------------------
-|---5--5--5--0--0-|---5---------------------|--------------------------------
-|-7-7--5--5--5--5-|-7-7-----------5--5-5--5-|--------------------------------
-|-7-7--5--5--5--5-|-7-7--5h7-7-7--5--5-5--5-|--------------------------------
-|-7-7--5--5--5--5-|-7-7--5---5-5--5--5-5--5-|--------------------------------
Chorus, Stone 3x
-|-----------------------------------|----------------------------------|-----
-|-------5---------------------------|--------------------0-------------|-----
-|-------5-----------4-4-4----4--4---|-------5------------0------4------|-----
-|-7--7--7-----------5-5-5----5--5---|-7--7--7---------5-----5---5--5---|-----
-|-7--7-------7-7-5--5-5-5-5--5--5-5-|-7--7--7----5h7--7-----5---5--5-5-|-----
-|-5--5-------5-5-3--3-3-3-3--3----3-|-5--5-------3----------3---3----3-|-----
Chorus, Mike

-|-----------------------------------|-------------------------------------|--
-|-------5-----5---------------------|-------------------------------------|--
-|-------5-----5---------------------|-----5--5----5-5---------------------|--
-|-------7-----7--0--5----5-5--5--5--|---5----5----5-5--5h7--7-7--5--5-----|--
-|-x-7---------------5h7--7-7--5--5--|-7------7----------------------5-----|--
-|-x-5-------------------------3--3--|-------------------------------3---3-|--

-|-----------------|-------------|-|-|------------|-|-|-------------|---------
-|-----------------|-----------5-|-|-|----------5-|-|-|-----------5-|---------
-|-----------------|-----------5-|-|-|----------5-|-|-|-----------5-|---------
-|-5/7--5--4--0----|-----5-7-7-7-|-|-|------5-7-7-|-|-|-----5-7---7-|---------
-|-5/7--5--4--0----|-5-7---------|-|-|--5-7-------|-|-|-5-7-----0---|---------
-|-5/7--5--4--0----|-------------|-|-|------------|-|-|-------------|---------
Bridge 8x Rhythm under solo
-|-----------------|-----------------|-|-|------------------|-----------------
-|-5-----5-----5---|-5-----5-----5---|-|-|-----------5--5-0-|-----------------
-|----5-----5----5-|----5-----5----5-|-|-|-----------5--5-0-|-----------------
-|-----------------|-----------------|-|-|-------5-7-7--7-0-|-----------------
-|-----------------|-----------------|-|-|---5-7-----0------|-----------------
-|-----------------|-----------------|-|-|------------------|-----------------

-|--------------------|-----------|----------------------|--------------------
-|--------------------|----5------|----------------------|--------------------
-|--------------------|----5--5---|----------------------|--------------------
-|-5--5---------------|--7-7--7-0-|-5--------------------|--------------------
-|-5--5-5--5--------0-|--7-0--7-0-|-5--5-5--5--5-------0-|--------------------
-|-5--5-5--5--2h4h5---|-----------|-5--5-5--5--5-2h4h5---|--------------------

-|-------------|-----------|--------------|----------|------------|-----------
-|-------------|-----------|--------------|----------|------------|-----------
-|----7b9------|-------7b9-|--7b9p7-5-----|--------5-|-7----------|-----------
-|---x---------|------x----|-x------------|----------|---7vvvvvvv-|-----------
-|-------------|-----------|--------------|----------|------------|-----------
-|-------------|-----------|--------------|----------|------------|-----------
Solo

-|---------------|---------------5---------|---------5-------------|----------
-|---------------|-----------5-5---5-8b10v-|vvvvvvvv---8p5---5-----|----------
-|---------------|--------x----------------|---------------7---7b9-|----------
-|-7vvvvvvvvvvvv-|-vvvvvv------------------|-----------------------|----------
-|---------------|-------------------------|-----------------------|----------
-|---------------|-------------------------|-----------------------|----------

-|--------------------------------------------------|-----------------|-------
-|--------------------------------------------------|-----------------|-------
-|-r7-5-----5---------------------------------------|-----------------|-------
-|------7-7---7p5h7p5vvvv-5b------------------------|-----------------|-------
-|---------------------------7-6-5-3-5b7r5p3---5-3vv|vvvvvvvvvvvvvvvv-|-------
-|-------------------------------------------5------|-----------------|-------

-|------------------------|-----------|-----------|-----------|---------------
-|------------------------|-----------|-----------|-----------|---------------
-|--------------5---5-7b9-|-r7-----7--|-7------p5-|-------5p0-|---------------
-|----------5-7---7-------|-----------|-----------|-----------|---------------
-|-vvvvvvvv---------------|-----------|-----------|-----------|---------------
-|------------------------|-----------|-----------|-----------|---------------
rapid toggle switch flicking--|

-|-----10b12----10b12-|-------10b12------|------------r10--|-10-8-----|-------
-|-----10b12----10b12-|-------10b12------|------------r10--|----------|-------
-|--------------------|------------------|-----------------|----------|-------
-|-5/-----------------|------------------|-----------------|----------|-------
-|--------------------|------------------|-----------------|----------|-------
-|--------------------|------------------|-----------------|----------|-------
hold bend----|hold bend------------------|

-|--8------8------8-------8-------|-------------------------------------------
-|--------------------------------|-------------------------------------------
-|--------------------------------|-------------------------------------------
-|--------------------------------|-------------------------------------------
-|--------------------------------|-------------------------------------------
-|--------------------------------|-------------------------------------------
toggle switch flicking------|

-|----5--5--5--3--3-|---------------|-------------------|-------------------|-
-|----5--5--5--3--3-|---------------|--8-----7------3---|3/-8----7--------3/|-
-|----5--5--5--0--0-|---------------|-10b12--9b11---5b7-|--10b12-9b11-5b7---|-
-|-7--7--5--5--5--5-|-5/7--5--4--0--|-------------------|-------------------|-
-|-7--7--5--5--5--5-|-5/7--5--4--0--|-------------------|-------------------|-
-|-7--7--5--5--5--5-|-5/7--5--4--0--|-------------------|-------------------|-
Outro solo rhythm 6x Play till end 4th time Play 3 and a half times
-|-------------10vvvv-|-------------------------------------------------------
-|--8----7------------|-------------------------------------------------------
-|-10b12-9b11---------|-------------------------------------------------------
-|--------------------|-------------------------------------------------------
-|--------------------|-------------------------------------------------------
-|--------------------|-------------------------------------------------------
Play till end
-|------------20-|-------------------|----------20---20-|-------------------|-
-|--20b22--------|-20b22r20--20b-----|-20b22------------|-20b22r20----------|-
-|-x-------------|-------------------|------------------|-------------------|-
-|---------------|-------------------|------------------|-------------------|-
-|---------------|-------------------|------------------|-------------------|-
-|---------------|-------------------|------------------|----------------0--|-
Outro solo grad.bend

-|-19---20---19-|-19-20-19---------------|-19---20---20-|---------------------
-|--------------|----------17vvvvvv-17vv-|--------------|---------------------
-|--------------|------------------------|--------------|---------------------
-|--------------|------------------------|--------------|---------------------
-|--------------|------------------------|--------------|---------------------
-|--------------|------------------------|--------------|---------------------

-|-19-20-19-------------------|-19---20---20-|-19-20-19---------------------|-
-|----------17vvvvvv-17-17-17-|--------------|----------17vvv-17vv-17-17-17-|-
-|----------------------------|--------------|------------------------------|-
-|----------------------------|--------------|------------------------------|-
-|----------------------------|--------------|------------------------------|-
-|----------------------------|--------------|------------------------------|-

-|-17-----17-----17-----17-------|--------------------------------------|-----
-|-20b22--20b22--20b22-----20-17-|--------------------------------------|-----
-|-------------------------------|-19b21r19-17----17h19-17b-------17----|-----
-|-------------------------------|-------------19--------------------19-|-----
-|-------------------------------|--------------------------------------|-----
-|-------------------------------|--------------------------------------|-----

-|------------------------------------------|---------------------------------
-|------------------------------------------|---------------------------------
-|-19-17b--19-17b--19-17--------------------|---------------------------------
-|-----------------------19-17--------------|---------------------------------
-|-----------------------------19-18-17-19--|---------------------------------
-|------------------------------------------|---------------------------------
2x
-|------------------------------------------|-------------------------------|-
-|----17b----17b----17b---------------------|----17b----17-17-17-20b22-20b22|-
-|-19-17b-19-17b-19-17b-x-------------------|-19-17b-19-17-17-17------------|-
-|------------------------17----------------|-------------------------------|-
-|---------------------------19-18-17-18-19-|-------------------------------|-
-|------------------------------------------|-------------------------------|-

-|-------17-19p17----17-20p17h19p17----17-20b22-|-----------------------------
-|-20b22----------20----------------20----------|-----------------------------
-|----------------------------------------------|-----------------------------
-|----------------------------------------------|-----------------------------
-|----------------------------------------------|-----------------------------
-|----------------------------------------------|-----------------------------

-|-20b22-r20b21---20b21r20-17----17-|-------19vvvvvvvvv-|---------------------
-|----------------------------20----|-20----------------|---------------------
-|----------------------------------|-------------------|---------------------
-|----------------------------------|-------------------|---------------------
-|----------------------------------|-------------------|---------------------
-|----------------------------------|-------------------|---------------------

-|-19-20-19-20-19-20-19-20-19-20-19-20-19-20-19-20-19-20-|--------------------
-|-------------------------------------------------------|--------------------
-|-------------------------------------------------------|--------------------
-|-------------------------------------------------------|--------------------
-|-------------------------------------------------------|--------------------
-|-------------------------------------------------------|--------------------

-|-19-20-20-19-20-19-20-20-19-20-20-19-19h20p19-19h20p19--------------------|-
-|------------------------------------------------------20b22r20-17------17-|-
-|-----------------------------------------------------------------19b21----|-
-|--------------------------------------------------------------------------|-
-|--------------------------------------------------------------------------|-
-|--------------------------------------------------------------------------|-

-|-------------------------------------------------------------------------|--
-|---17-20-17--17----------------------------------------------------------|--
-|-19--------19--19b21r19-17--19-----19-17---------------------------------|--
-|--------------------------19--17-19-----19-17--19------------------------|--
-|---------------------------------------------19--19-17-19-17-15-17-15----|--
-|----------------------------------------------------------------------17-|--

-|-------|------------------------------------------12----------------------|-
-|-------|-------------------------------15p13-15b17--16-15-13---13h15p13--|-
-|-------|------------------12/14vv-12h14---------------------14------------|-
-|-------|-------------12-14------------------------------------------------|-
-|-------|-15-15b17r15------------------------------------------------------|-
-|-15-17-|------------------------------------------------------------------|-

-|------------------------------------------------------|---------------------
-|------------------------------------13----------------|---------------------
-|-2-/-7---5h7p5---5/9--/12h14p12--------14-12-14-12----|---------------------
-|-----/---------7----------------14-----------------14-|---------------------
-|-----/------------------------------------------------|---------------------
-|------------------------------------------------------|---------------------
trem.pick

-|--------------------------------------------------------------------------|-
-|-15-16-15-13----15--13-----------------/10--10-10-10-10-10h13p10-13p10h13-|-
-|-------------14---14---12-12h14r12----------------------------------------|-
-|-----------------------------------14------------------------------------|-
-|--------------------------------------------------------------------------|-
-|--------------------------------------------------------------------------|-

-|-------------------------------------------------------12b13r12-|-----------
-|-10h13p10h13p10h13p10h13p10h13p10h13p10h13p10h13p10h13----------|-----------
-|----------------------------------------------------------------|-----------
-|----------------------------------------------------------------|-----------
-|----------------------------------------------------------------|-----------
-|----------------------------------------------------------------|-----------

-|----------12b13r12----------12b13r12----------12b13-|-----------------------
-|-13-12-13----------15-13-15----------15-13-15-------|-----------------------
-|----------------------------------------------------|-----------------------
-|----------------------------------------------------|-----------------------
-|----------------------------------------------------|-----------------------
-|----------------------------------------------------|-----------------------
fade out////////////////// ¿Te Animas? Sube una canción a este sitio. //////////////////

ACORDES PARA GUITARRA

PIANO UKELELE


COMENTARIOS

Aún no hay comentarios,

¡escribe el primero!

Escribe una pregunta, duda o comentario sobre esta canción, te responderemos a la brevedad.

Las más tocadas de Pearl Jam

Toca una Canción al Azar de Pearl Jam