Glorified G
Pearl Jam
Acordes

Subida por carlos8
Álbum: Vs. ( 1993)


Más Versiones
Ver. 2 Ver. 3 Ver. 4 Ver. 5 Ver. 6
+A
-A
 



September 26, 1994


Below is the opening riff that Mike plays. This riff is used throughout
the song without much variation.

E-|---------------------------------------------------------------------------|
B-|------3----3--3-------3----3-3------3----3--3-------3---2------------------|
G-|--0h2---2--4--2---0h2---2--1-2--0h2---2--4--2---0h2---2-0------------------|
D-|---------------------------------------------------------------------------|
A-|---------------------------------------------------------------------------|
E-|---------------------------------------------------------------------------|


This is the little rhythm riff that Stone plays. Listen to this to get the
groove that he is playing -- don't forget the muted rakes.

E-|---------------------------------------------------------------------------|
B-|---------------------------------------------------------------------------|
G-|---------------------------------------------------------------------------|
D-|--7---6---5-6--------------------------------------------------------------|
A-|--5---5---7-5---muted--rakes-----------------------------------------------|
E-|---------------------------------------------------------------------------|


Stone and Mike basically play the these next two lines about the same.
Although I have added more of what Mike plays into the tab.


E-|------------------------------|----5-------5-------------------------------|
B-|--3-3-3--3--3----3-3-3--3--3--|--6-6-6-6-6-6-6-6-6-6-6-6-6-6-6---5-5-5-----|
G-|--2-2-2h-4--2----2-2-2h-4--2--|--5-5-5-5-5-5-5-5-5-5-5-5-5-5-5---5-5-5-----|
D-|--0-0-0--0--0----0-0-0--0--0--|--5-5-5-5-5-5-5-5-5-5-5-5-5-5-5---5-5-5-----|
A-|------------------------------|--------------------------------------------|
E-|------------------------------|--------------------------------------------|
Got a gun, fact I got 2 That's OK man 'cuz I love God


E-|-------------------------------|-------5-----------5-----------------------|
B-|--3-3-3--3-3--------3-------3--|-6-6-6-6-6-6-6-6-5-5-5-5-5-5-5-5-----------|
G-|--2-2-2h-4-2--------2-------2--|-5-5-5-5-5-5-5-5-5-5-5-5-5-5-5-5-----------|
D-|--0-0-0--0-0---2h-4----2h-4----|-5-5-5-5-5-5-5-5-5-5-5-5-5-5-5-5-----------|
A-|-------------------------------|-------------------------------------------|
E-|-------------------------------|-------------------------------------------|
Glorified version of a pellet gun Feels so manly when armed


This is a really weird switch in the song ("Always, keep it looooaaaded!!").
The chord pattern is C, C#, D#. Sometimes it is hard to remember to go
to this pattern. If you listen to the live Atlanta show, Mike even
forgets to hit the right chords!

E-|----------------------9-9----|----------------------9-9--------9-9---------|
B-|------------------8-8-9-9-8--|------------------8-8-9-9-8--8-8-9-9-8-------|
G-|--5--5-5--6--6-6--8-8-8-8-8--|--5--5-5--6--6-6--8-8-8-8-8--8-8-8-8-8-------|
D-|--5--5-5--6--6-6--8-8-8-8-8--|--5--5-5--6--6-6--8-8-8-8-8--8-8-8-8-8-------|
A-|--3--3-3--4--4-4--6-6-6-6-6--|--3--3-3--4--4-4--6-6-6-6-6--6-6-6-6-6-------|
E-|-----------------------------|---------------------------------------------|


This is a very simple variation to the first riff that Mike plays. He
basically plays the A note a few more times that normal and throws a simple
5th fret bend. For those of you that can't follow the notation, 5b p3 means
to bend the 5th fret to 7th (whole step), drop the bend back down and
pull off
to the 3rd fret.

E-|----------------------------------|----------------------------------------|
B-|-----3---3--3--------------3---3--|------3---2--3-------------3---3-5b-p3--|
G-|-0h2---2-4--2-2-2-2-2-0h-2---2-1--|--0h2---2-4--2-2-2-2-2-0h2---2-0--------|
D-|----------------------------------|----------------------------------------|
A-|----------------------------------|----------------------------------------|
E-|----------------------------------|----------------------------------------|


Here is the solo. I am not even sure if it is worth transcribing solos. I
would like to hear some feedback from people. Let me know if this even helps
anyone to learn the solo. I know that sometimes tab is really hard to
follow.

Anyway, tackle this a little bit at a time. It really is a pretty easy solo
to learn. Just think of each part as a small riff.

E-|--------------------------------|------------------------------------------|
B-|---------------7--10p7--10b--10-|-10b--10--7-------------------------------|
G-|------7hp9--9b------------------|-------------9b--7---7--------------------|
D-|--7h9---------------------------|-------------------9----------------------|
A-|--------------------------------|------------------------------------------|
E-|--------------------------------|------------------------------------------|



This measure might not be correct. Play this twice.
E-|------------------------------------|------------10---------10-------------|
B-|------------------------------------|-10--10h-12-----10h-12----10----------|
G-|------------------------------------|-----------------------------11-------|
D-|-9p-7-7-----------------------------|--------------------------------------|
A-|---------9p-7-7--9-------7--7b-7----|--------------------------------------|
E-|-------------------10--7---------10-|--------------------------------------|



Play this a couple times. Play this twice.
E-|----12p-10----14p-10----12p-10----14p-10----|-12b-12b--10------------------|
B-|-10--------10--------10--------10--------10-|-------------12-10------------|
G-|--------------------------------------------|------------------------------|
D-|--------------------------------------------|------------------------------|
A-|--------------------------------------------|------------------------------|
E-|--------------------------------------------|------------------------------|



Get used to the bend/hold/release.
E-|-10b-10--------10------10-------------|------------------------------------|
B-|--------12--10b-hold-10---10-release--|-7--10------10-10-10-10--------10-10|
G-|--------------------------------------|-7--9b-hold-9--9--9--9-release-9--7-|
D-|--------------------------------------|-----------------------------------9|
A-|--------------------------------------|------------------------------------|
E-|--------------------------------------|------------------------------------|


E-|-10b-10--------------------------------------------------------------------|
B-|--------12-10--------10----10------------10--------------------------------|
G-|--------------11--9b-hold-9---9-release--7---------------------------------|
D-|--------------------------------------------------------------------------|
A-|---------------------------------------------------------------------------|
E-|---------------------------------------------------------------------------|




When you learn this one, teach it to a friend. See ya!

ACORDES PARA GUITARRA

PIANO UKELELE


COMENTARIOS

Aún no hay comentarios,

¡escribe el primero!

Escribe una pregunta, duda o comentario sobre esta canción, te responderemos a la brevedad.

Las más tocadas de Pearl Jam

Toca una Canción al Azar de Pearl Jam