Go
Pearl Jam
Acordes

Subida por Maximilianolopez2019
Álbum: Vs. ( 1993)


Más Versiones
Ver. 2 Ver. 3 Ver. 4 Ver. 5 Ver. 6
+A
-A
Versão 1
-======-


From: Planettelex

All in all a pretty easy rhythm section
I think all the complication in this song is within the speed and timing.

I might think about it! Tabbed by John Faulding.


INTRO (w/random pickings):
E-------------------------------------------------------||--------------
B-------------------------------------------------------||--------------
G---4:--------------x--------7--7--------5-----5--------||--------------
D---4:-----------------x--5--7--7--------5-----5-----4--||--------------
A-------------------------5--x--5--4--3--3--3--3--2--2--||--------------
D----------(12)-----------------------------------------||--------------


Drums/Bass enter, bass playing twice:
E---------------------------|--------------------------|----------------
B---------------------------|--------------------------|----------------
G---------------------------|--------------------------|----------------
D---------------------------|--------------------------|----------------
A------------------2p0------|-----------------2p0------|----------------
D---0-----2-----3-------3^--|--0-----2-----3-------3^--|----------------


Guitar lick over bass (second time)
E--------------------------------------------------------||-------------
B---------------------5-----7--8-----10-----8h10p87-----||-------------
G--------------------------------------------------------||-------------
D--------------------------------------------------------||-------------
A--------------------------------------------------------||-------------
D--------------------------------------------------------||-------------


Loud power chords
E------------------||---------------------------------------------------
B------------------||---------------------------------------------------
G------------------||--7:-----7-----7--7--6-----7--7--7--6--------------
D------------------||--8:-----7-----7--7--6-----7--7--7--6--------------
A------------------||---------5-----5--5--4-----5--5--5--4--------------
D------------------||---------------------------------------------------


VERSE:
E-----------------------------------------------------------------------
B-----------------------------------------------------------------------
G-----------------------------------------------------------------------
D-----------------------------------------------------------------------
A-----------------------------------------------------------------------
D-----------------------------------------------------------------------


Repeated 4 times
E------||-------------------------------------||------------------------
B------||-------------------------------------||------------------------
G------||*--4:--------------------------------||------------------------
D------||*--4:--0-----------------------------||------------------------
A------||-------0--------------2p0------------||------------------------
D------||-------0-----2-----3-------3^--x--x--||------------------------


"Oh please don't go out on me..."
E---------------------------||-----||-----------------------------------
B---------------------------||-----||-----------------------------------
G---------------------------||-----||-----------------------------------
D---0-----------------------||-----||--0--------------------------------
A---0-----------2p0---------||-----||--0--------------2p0---------------
D---0--2-----3-------3^--x--||-----||--0-----2-----3-------3^--x--x-----



E---||--------------------------------------||--------------------------
B---||--------------------------------------||--------------------------
G---||--------------------------------------||--------------------------
D---||--0-----------------------------------||--0-----------------------
A---||--0--------------2p0------------------||--0--------------2p0------
D---||--0-----2-----3-------3^--x--x--------||--0-----2-----3-----------



E-------------||-----------------------------------||-------------------
B-------------||-----------------------------------||-------------------
G-------------||-----------------------------------||-------------------
D-------------||--0--------------------------------||--0----------------
A-------------||--0--------------2p0---------------||--0----------------
D---3^--x--x--||--0-----2-----3-------3^--x--x-----||--0-----2-----3----



E------------------||--------------------------------------------||-----
B------------------||--------------------------------------------||-----
G------------------||--------------------------------------------||-----
D------------------||--0-----------------------------------------||-----
A---2p0------------||--0--------------2p0------------------------||-----
D--------3^--x--x--||--0-----2-----3-------3^--x--x--------------||-----


"Despite of it all..."
E---------------------------------||--------------------||--------------
B---------------------------------||--------------------||--------------
G---------------------------------||--------------------||--------------
D---0-----------------------------||--------------------||--------------
A---0--------------2p0------------||--------------------||--------------
D---0-----2-----3-------3^--x--x--||--------------------||--------------


PRE-CHORUS:
E------------------|--------------------||------------------------------
B------------------|--------------------||------------------------------
G---7--7--7--7--6--|--7--7--7--6--4-----||------------------------------
D---7--7--7--7--6--|--7--7--7--6--4--2--||------------------------------
A---5--5--5--5--4--|--5--5--5--4--2--0--||------------------------------
D------------------|--------------------||------------------------------


(REPEAT VERSE & PRE-CHORUS)
E------------------------------------------||---------------------------
B------------------------------------------||---------------------------
G------------------------------------------||---------------------------
D------------------------------------------||---------------------------
A------------------------------------------||---------------------------
D------------------------------------------||---------------------------


"Please please please please please.."
E-----------------------------------------------------------------------
B-----------------------------------------------------------------------
G------------------------------------------------------5--7-------------
D------------------------------------------3--3--3--3--5--7-------------
A------------------------------------------3--3--3--3--3--5-------------
D------------------------------------------3--3--3--3-------------------


"Don't go on on me!" (Repeated)
E------------------------------------------||---------------------------
B------------------------------------------||---------------------------
G---7--7--7--7-----------------------------||---------------------------
D---7--7--7--7-----------------------------||---------------------------
A---5--5--5--5-----------------------------||---------------------------
D------------------------------------------||---------------------------


Lead lick behind chorus:
E---10--10--10--10--10--10--10--8--10--8--10--8--10--8--10--8--10-------
B-----------------------------------------------------------------------
G-----------------------------------------------------------------------
D-----------------------------------------------------------------------
A-----------------------------------------------------------------------
D-----------------------------------------------------------------------



E-------8--10--8-----10--8--10--8--10--8--10--8---------10-----8--10----
B---10-------------------------------------------8--10------8-----------
G-----------------8-----------------------------------------------------
D-----------------------------------------------------------------------
A-----------------------------------------------------------------------
D-----------------------------------------------------------------------


REPEAT VERSE (NO VOCALS)
E---8--10p8---p6p5p4p2p0--||--------------------------------------------
B-------------------------||--------------------------------------------
G-------------------------||--------------------------------------------
D-------------------------||--------------------------------------------
A-------------------------||--------------------------------------------
D-------------------------||--------------------------------------------


AND PRE-CHORUS REPEAT CHORUS
E---------------------------||--------------------------||--------------
B---------------------------||--------------------------||--------------
G---------------------------||--------------------------||--------------
D---------------------------||--------------------------||--------------
A---------------------------||--------------------------||--------------
D---------------------------||--------------------------||--------------


Outro solo:
E-----------------------------------------------------------------------
B---15------15------17------17------18------18---20------20---22--------
G---17^-----17^-----19^-----19^-----20^-----20^--22^-----22^--24^-------
D-----------------------------------------------------------------------
A-----------------------------------------------------------------------
D-----------------------------------------------------------------------



E------------------------------------------------||---------------------
B---22---22---22---22^--22^--22^--22^--22^--22^--||---------------------
G---24^--24^--24^--------------------------------||---------------------
D------------------------------------------------||---------------------
A------------------------------------------------||---------------------
D------------------------------------------------||---------------------




========================================================================
== TABLATURE EXPLANATION ==
========================================================================

---------- ---------- ----t---
----5h8--- Hammeron ----(8)--- Ghost ----6--- Tap
---------- ---------- Note --------
----5p8--- Pulloff ---------- --------

---------- ---------- -----p--
----5/8--- Slide Up -----x---- Dead -----7-- Pop
---------- ---------- Note --s-----
----58--- Slide Down ---------- --5----- Slap

---------- ||------|| Repeat --------
----5~~~-- Vibrato ||*----*|| ---5^--- Bend
---------- ||*----*|| --------
---------- ||------|| --------

---------- ---------- --------
-4:------- Time ---------- --------
-4:------- Signature ---------- --------
---------- ---------- --------

Rhythm:
w = whole note W = dotted whole
h = half note H = dotted half




Versão 2
-======-


G1 (Stone) is open-D tuning--DADF#AD (low to high)
G2 (Mike) is dropped-d

-|---|---|-------------------------------------------------------|------------
-|---|---|-------------------------------------------------------|------------
-|---|---|-------------------------------------------------------|------------
-|---|---|-------------------------------------------------------|------------
-|---|---|-------------------------------------------------------|------------
-|---|---|-0-0-0-0-2-3--0-3/--0-0-0-2-3--0-3/--0-0-0-0-2-3--0-3/-|------------
Intro, G1 with Fill 1

-|----------------------------------|-----------------------------------------
-|-5-5-5-5-7-7-7-8-8-8-10-8h10p85--|-----------------------------------------
-|----------------------------------|-----------------------------------------
-|----------------------------------|-----------------------------------------
-|----------------------------------|-----------------------------------------
-|----------------------------------|-----------------------------------------
Fill 1 (G2)

-|--------------------|---------------|---------------------------------------
-|--------------------|---------------|---------------------------------------
-|--------------------|---------------|---------------------------------------
-|--------------------|---------------|---------------------------------------
-|--------------------|---------------|---------------------------------------
-|-0-0-0-0-2-3--0-3/--|-0--0-0-2--3---|---------------------------------------
G1 4x
-|-------------------------|-------------------------|------------------------
-|-5--5--5--4--5--5--5--4--|-------------------------|------------------------
-|-------------------------|-7--7--7--6--7--7--7--6--|------------------------
-|-------------------------|-------------------------|------------------------
-|-5--5--5--4--5--5--5--4--|-5--5--5--4--5--5--5--4--|------------------------
-|-------------------------|-------------------------|------------------------
G1 G2

-|-------------------|--------------------|---------------------------------|-
-|-------------------|--------------------|-5--5--54--4---5--5--5--4--2p0--|-
-|-------------------|--------------------|---------------------------------|-
-|-------------------|--------------------|---------------------------------|-
-|-------------------|-------------2p0----|-5--5--54--4---5--5--5--4--2p0--|-
-|-0-0-0-0-2-3--0-3/-|-0-0-0-0-2-3-----3/-|---------------------------------|-
G1 12x G2 12x G1 2x
-|---------------------------------------------------------------------|------
-|---------------------------------------------------------------------|------
-|--7--7--76--6---7--7--7--6--4--2---7--7--76--6---7--7--7--6--4--2--|------
-|---------------------------------------------------------------------|------
-|--5--5--54--4---5--5--5--4--2--0---5--5--54--4---5--5--5--4--2--0--|------
-|---------------------------------------------------------------------|------
G2

-|-------------------|--------------------|---------------------------------|-
-|-------------------|--------------------|--5--5--54--4---5--5--5--4--2p0-|-
-|-------------------|--------------------|---------------------------------|-
-|-------------------|--------------------|---------------------------------|-
-|-------------------|-------------2p0----|--5--5--54--4---5--5--5--4--2p0-|-
-|-0-0-0-0-2-3--0-3/-|-0-0-0-0-2-3-----3/-|---------------------------------|-
G1 8x G2 8x G1 4x
-|---------------------------------------------------------------------|------
-|---------------------------------------------------------------------|------
-|--7--7--76--6---7--7--7--6--4--2---7--7--76--6---7--7--7--6--4--2--|------
-|---------------------------------------------------------------------|------
-|--5--5--54--4---5--5--5--4--2--0---5--5--54--4---5--5--5--4--2--0--|------
-|---------------------------------------------------------------------|------
G2 4x

-|-12-----12-----12----------12-----12-----12-----12----------12-----12-----|-
-|----12-----12-----12-12h15----15-----15-----15-----15-12h15----12-----12--|-
-|--------------------------------------------------------------------------|-
-|--------------------------------------------------------------------------|-
-|--------------------------------------------------------------------------|-
-|--------------------------------------------------------------------------|-
Chorus, G1

-|-12-----12----------12-----12-----12-----12----------12----12----12------|--
-|----12-----12-12h15----15-----15-----15-----15-12h15----12----12----12---|--
-|-------------------------------------------------------------------------|--
-|-------------------------------------------------------------------------|--
-|-------------------------------------------------------------------------|--
-|-------------------------------------------------------------------------|--


-|-11-----10------|-----------------------------------------------------------
-|----11-----10--|-----------------------------------------------------------
-|----------------|-----------------------------------------------------------
-|----------------|-----------------------------------------------------------
-|----------------|-----------------------------------------------------------
-|----------------|-----------------------------------------------------------


-|---------------------------------------|------------------------------------
-|---------------------------------------|------------------------------------
-|---------------------------------------|------------------------------------
-|--------------------8--8--8---8--8--8--|------------------------------------
-|--------------------8--8--8---8--8--8--|------------------------------------
-|-0-0-0-0-2-3--0-3/--8--8--8---8--8--8--|------------------------------------
Chourus, G2 5x
-|--------------------|-------------------------------------------------------
-|--------------------|-------------------------------------------------------
-|--------------------|-------------------------------------------------------
-|--------------------|-------------------------------------------------------
-|--------------------|-------------------------------------------------------
-|-0-0-0-0-2-3--0-3/--|-------------------------------------------------------
Solo rhythm 8x
-|-15b17---15b17-15b17-15b17-15b17-15b17-15b17r15-13----13---------------|----
-|---------------------------------------------------15----15-13h15p13---|----
-|-----------------------------------------------------------------------|----
-|-----------------------------------------------------------------------|----
-|-----------------------------------------------------------------------|----
-|-----------------------------------------------------------------------|----
Solo, Mike (w/wah)

-|-------10---------------------------------------------------------------|---
-|-10-13----13-10-13------------------------------------------------------|---
-|-------------------12b13r12-10----10-12p10----12p10----10-12-b13r12-10--|---
-|-------------------------------12----------12-------12------------------|---
-|------------------------------------------------------------------------|---
-|------------------------------------------------------------------------|---


-|-----------------------------------------------10----------10-----------|---
-|-----------------------------------10-13-10-------13-10-------13-10-----|---
-|----10-12-b13r12-10----10-12-12b13----------12----------12----------12--|---
-|-12-----------------12--------------------------------------------------|---
-|------------------------------------------------------------------------|---
-|------------------------------------------------------------------------|---


-|-10-13----------------------------------------------------------------|-----
-|------10------------10h13p10------------------------------------------|-----
-|--------12-10--10-12--------12-12-12-10-12-10----10-10b11-10----------|-----
-|-------------12-------------------------------12-------------12-10-12-|-----
-|----------------------------------------------------------------------|-----
-|----------------------------------------------------------------------|-----


-|------------------------------------------------------------------------|---
-|------------------------------------------------------------------------|---
-|-----------------------------------------------------12-10h12p10----10-|---
-|-10--10h12-10-10-------------------------------10-12-------------12-----|---
-|---12------------12-10-8-10b11r10-8-10p8-10/12--------------------------|---
-|------------------------------------------------------------------------|---


-|----------------------------------|-----------------------------------|-----
-|--5--5--54--4---5--5--5--4--2p0--|-----------------------------------|-----
-|----------------------------------|--7--7--76--6---7--7--7--6--4--2--|-----
-|----------------------------------|-----------------------------------|-----
-|--5--5--54--4---5--5--5--4--2p0--|--5--5--54--4---5--5--5--4--2--0--|-----
-|----------------------------------|-----------------------------------|-----
G1 4x G2 4x
-|-12-----12-----12----------12-----12-----12-----12----------12-----12-----|-
-|----12-----12-----12-12h15----15-----15-----15-----15-12h15----12-----12--|-
-|--------------------------------------------------------------------------|-
-|--------------------------------------------------------------------------|-
-|--------------------------------------------------------------------------|-
-|--------------------------------------------------------------------------|-
Chorus, G1

-|-12-----12----------12-----12-----12-----12----------12-----12-----12-----|-
-|----12-----12-12h15----15-----15-----15-----15-12h15----12-----12-----12--|-
-|--------------------------------------------------------------------------|-
-|--------------------------------------------------------------------------|-
-|--------------------------------------------------------------------------|-
-|--------------------------------------------------------------------------|-


-|-12----------12-----12-----12-----12----------12-----12-----12-----12-----|-
-|----12-12h15----15-----15-----15-----15-12h15----12-----12-----12-----12--|-
-|--------------------------------------------------------------------------|-
-|--------------------------------------------------------------------------|-
-|--------------------------------------------------------------------------|-
-|--------------------------------------------------------------------------|-


-|-------12-----12-----12----12----------|------------------------------------
-|-12h15----15-----15-----15----15-------|------------------------------------
-|---------------------------------------|------------------------------------
-|---------------------------------------|------------------------------------
-|---------------------------------------|------------------------------------
-|----------------------------------15--|------------------------------------


-|---------------------------------------|------------------------------------
-|---------------------------------------|------------------------------------
-|---------------------------------------|------------------------------------
-|-8--8--8---8--8--8---------------------|------------------------------------
-|-8--8--8---8--8--8---------------------|------------------------------------
-|-8--8--8---8--8--8--0-0-0-0-2-3--0-3/--|------------------------------------
Chorus, G2 8x
-|--------------------|-----------------------------------------------------|-
-|--------------------|-----------------------------------------------------|-
-|--------------------|-----------------------------------------------------|-
-|--------------------|-----------------------------------------------------|-
-|--------------------|-----------------------------------------------------|-
-|-0-0-0-0-2-3--0-3/--|-12-12-12-12-12-12-12-12-12-12-12-12-12-12-12-12-12-|-
Outro solo rhythm 15x
-|-10----10----10----10----10----10----|-12----12----12----12----12----12---|-
-|-13b15-13b15-13b15-13b15-13b15-13b15-|-15b17-15b17-15b17-15b17-15b17-15b17|-
-|-------------------------------------|------------------------------------|-
-|-------------------------------------|------------------------------------|-
-|-------------------------------------|------------------------------------|-
-|-------------------------------------|------------------------------------|-
Outro Solo (w/ major wah) 2x 2x
-|-13----13----13----13----13----13----|-15----15----15----15----15----15---|-
-|-16b18-16b18-16b18-16b18-16b18-16b18-|-18b20-18b20-18b20-18b20-18b20-18b20|-
-|-------------------------------------|------------------------------------|-
-|-------------------------------------|------------------------------------|-
-|-------------------------------------|------------------------------------|-
-|-------------------------------------|------------------------------------|-
2x 2x
-|-17----17----17----17----17----17----|--17-------17---|--------------------
-|-20b22-20b22-20b22-20b22-20b22-20b22-|--20b22----------|--------------------
-|-------------------------------------|-----------------|--------------------
-|-------------------------------------|-----------------|--------------------
-|-------------------------------------|-----------------|--------------------
-|-------------------------------------|-----------------|--------------------
7x ////////////////// ¿Te Animas? Sube una canción a este sitio. //////////////////

ACORDES PARA GUITARRA

PIANO UKELELE


COMENTARIOS

Aún no hay comentarios,

¡escribe el primero!

Escribe una pregunta, duda o comentario sobre esta canción, te responderemos a la brevedad.

Las más tocadas de Pearl Jam

Toca una Canción al Azar de Pearl Jam